:: Guitar & Bass Tabs Make Home Page
A B C D E F G H I J K L M N O P Q R S T U V W X Y Z #

  for    

On TABSPACE
Info About This Tab
Artist: Lynyrd Skynyrd
Tab Type: Guitar
Rate This Tab!
----------------------------------------------------------------------------
		    Lynyrd Skynyrd - Red White and Blue
----------------------------------------------------------------------------

Tabbed by:fender_start_77
Email:

This is one of the best Lynyrd Skynyrd songs ever and I figured this site needed
it. Also i couldn't find it anywhere else.

Tuning: Standard (Intro and verse can be played one half step down)

Chords:EBGDAE
A      X02220
Emin   022000
Dsus2  X00230
Dmin   X00231
D      X00232

Intro:
e|----0----------0----------0----------0----------0----------0------|
B|------0----------0----------0----------0----------0----------0----|
G|---2---2------2---2------2---2------2---2------2---2------2---2---|
D|--2-----2----2-----2----2-----2----2-----2----2-----2----2-----2--|
A|-0----------0-----------------------------------------------------|
E|-----------------------3----------3----------2----------1---------|

e|----0----------0------|
B|------0----------0----|
G|---2---2------2---2---| Repeat one more time with acoustic guitar in 
D|--2-----2----2-----2--| the background playing the same thing as the 
A|-0----------0---------| electric.
E|----------------------|

Verse:
We don't have no plastic L.A. friends...
e|----0----------0----------0----------0----------0----------0------|
B|------0----------0----------0----------0----------0----------0----|
G|---2---2------2---2------2---2------2---2------2---2------2---2---|
D|--2-----2----2-----2----2-----2----2-----2----2-----2----2-----2--|
A|-0----------0-----------------------------------------------------|
E|-----------------------3----------3----------2----------1---------|

e|----0----------0------|
B|------0----------0----|
G|---2---2------2---2---| 
D|--2-----2----2-----2--| 
A|-0----------0---------|
E|----------------------|

We don't care if your a lawer...
e|----0----------0----------0----------0----------0----------0------|
B|------0----------0----------0----------0----------0----------0----|
G|---2---2------2---2------2---2------2---2------2---2------2---2---|
D|--2-----2----2-----2----2-----2----2-----2----2-----2----2-----2--|
A|-0----------0-----------------------------------------------------|
E|-----------------------3----------3----------2----------1---------|

e|----0----------0------|
B|------0----------0----|
G|---2---2------2---2---| 
D|--2-----2----2-----2--| 
A|-0----------0---------|
E|----------------------|

Chorus:Use Tremblo Pedal For Chords

A                    Emin                      Dsus2
  My Hiars turnin white, my necks always been red, and my collars still 
 
A  Fill 1                 Dmin                          D Fill2             
blue. We've always been here, just tryin' to sing the truth to you. I Guess 
           
           D  Fill3          Dmin Fill 4
you could say, we've always been     Red White and Blue.

Fill 1:
e|-----------| 
B|-----------|
G|-----------|
D|----4p2--2-|
A|-2h4---2-2-|
E|---------0-|

Fill 2:
e|--------0-------|
B|----0----0------|
G|---2-2----2---2-|
D|------2----2-2--|
A|-0-----0----0---|
E|----------------|

Fill 3:
e|-----------|
B|-----------|
G|-----------|
D|-3b-hold-r-|
A|-----------|
E|-----------|

Fill 4:
e|-----------|
B|-----------|
G|-----------|
D|-----------|
A|-3b-hold-r-|
E|-----------|


e|----0----------0----------0----------0----------0----------0------|
B|------0----------0----------0----------0----------0----------0----|
G|---2---2------2---2------2---2------2---2------2---2------2---2---|
D|--2-----2----2-----2----2-----2----2-----2----2-----2----2-----2--|
A|-0----------0-----------------------------------------------------|
E|-----------------------3----------3----------2----------1---------|

e|----0----------0------|
B|------0----------0----|
G|---2---2------2---2---| Play once under solo break
D|--2-----2----2-----2--| 
A|-0----------0---------|
E|----------------------|

Solo Break:
e|-------------------------------------------------------------------------|
B|-------------------------------------------------------------------------|
G|-------------------------------------------------------------------------|
D|-11~~-12-\-11-\-7>>>>>>----11~----12-\-11-\-7>>>>>>----15b-r-14----------|
A|-------------------------------12----------------------------------------|
E|-------------------------------------------------------------------------|

Write our own...
e|----0----------0----------0----------0----------0----------0------|
B|------0----------0----------0----------0----------0----------0----|
G|---2---2------2---2------2---2------2---2------2---2------2---2---|
D|--2-----2----2-----2----2-----2----2-----2----2-----2----2-----2--|
A|-0----------0-----------------------------------------------------|
E|-----------------------3----------3----------2----------1---------|

              Fill 5
e|----0----------0------|
B|------0----------0----|
G|---2---2------2---2---| 
D|--2-----2----2-----2--| 
A|-0----------0---------|
E|----------------------|

Fill 5:
e|---------------------|
B|---------------------|
G|-----------9-10------|
D|-8-8h10-10------8/10-|
A|---------------------|
E|---------------------|

I've driven by the white house...
e|----0----------0----------0----------0----------0----------0------|
B|------0----------0----------0----------0----------0----------0----|
G|---2---2------2---2------2---2------2---2------2---2------2---2---|
D|--2-----2----2-----2----2-----2----2-----2----2-----2----2-----2--|
A|-0----------0-----------------------------------------------------|
E|-----------------------3----------3----------2----------1---------|

                         Fill 6
e|----0----------0------|
B|------0----------0----|
G|---2---2------2---2---| 
D|--2-----2----2-----2--| 
A|-0----------0---------|
E|----------------------|

Fill 6:        A
e|-------------0-----------------------------------------------------------|
B|-14~~--------2-----------------------------------------------------------|
G|------14~~---2--Fade-Out-------------------------------------------------|
D|-------------2--With Whammy----------------------------------------------|
A|-------------0-----------------------------------------------------------|
E|-------------------------------------------------------------------------|

Chorus:Use Tremblo Pedal For Chords

A                    Emin                      Dsus2
  My Hiars turnin white, my necks always been red, and my collars still 
 
A  Fill 1                 Dmin                          D Fill2             
blue. We've always been here, just tryin' to sing the truth to you. I Guess 
           
           D  Fill3          Dmin Fill 4
you could say, we've always been     Red White and Blue.

Piano Break/Solo

2nd Solo Break:(Played over piano)
e|------------------------------------------------15-----------------------|
B|-14~~~-8-8h10>>>\0--14~~~-14/21b(22)>>\0----------14~--------------------|
G|------------------------------------------12s14------12h14---------------|
D|-------------------------------------------------------------------------|
A|-------------------------------------------------------------------------|
E|-------------------------------------------------------------------------|

e|-16--16------------------------------------------------------------------|
B|---16---14s12------------------------------------------------------------|
G|-------------13>>>\11>>--7-\-5-\-2>>>>Fade-Out---------------------------|
D|-------------------------------------------------------------------------|
A|-------------------------------------------------------------------------|
E|-------------------------------------------------------------------------|

My daddy worked hard...
e|----0----------0----------0----------0----------0----------0------|
B|------0----------0----------0----------0----------0----------0----|
G|---2---2------2---2------2---2------2---2------2---2------2---2---|
D|--2-----2----2-----2----2-----2----2-----2----2-----2----2-----2--|
A|-0----------0-----------------------------------------------------|
E|-----------------------3----------3----------2----------1---------|

e|----0----------0------|
B|------0----------0----|
G|---2---2------2---2---| 
D|--2-----2----2-----2--| 
A|-0----------0---------|
E|----------------------|

Yeah, we love our families...
e|----0----------0----------0----------0----------0----------0------|
B|------0----------0----------0----------0----------0----------0----|
G|---2---2------2---2------2---2------2---2------2---2------2---2---|
D|--2-----2----2-----2----2-----2----2-----2----2-----2----2-----2--|
A|-0----------0-----------------------------------------------------|
E|-----------------------3----------3----------2----------1---------|
                         Fill 7:
e|----0----------0------|
B|------0----------0----|
G|---2---2------2---2---| 
D|--2-----2----2-----2--| 
A|-0----------0---------|
E|----------------------|

Fill 7:
e|-----------------------------|
B|-----------------------------|
G|-2x--x--x--x--x--x--x---2>>>-|
D|-2x--x--x--x--x--x--x---2>>>-|
A|-0x--x--x--x--x--x--x---0>>>-|
E|-----------------------------|

Chorus:Use Tremblo Pedal For Chords

A                    Emin                      Dsus2
  My Hiars turnin white, my necks always been red, and my collars still 
 
A  Fill 8                 Dmin                          D Fill2             
blue. We've always been here, just tryin' to sing the truth to you. I Guess 
           
           D  Fill3          Dmin Fill 4
you could say, we've always been     Red White and Blue.

Fill 8:
e|-------------------|
B|-14>>>s10-10h12p10-|
G|-------------------|
D|-------------------|
A|-------------------|
E|-------------------|

Sorry, no solo right now, i will post it as soon as i figure it out, which will be soon.

| >  let-ring
| b  bend
|(X) bend string so it sound like note in ( )
| r  return
| /  slide up
| \  slide down
| h  hammer-on
| p  pull-off
| ~  vibrato
| +  harmonic
| x  Mute note
============================================================================


Share "Red White And Blue" by Lynyrd Skynyrd


TOP 10 TABS

FRESH NEW TABS

ALL ARTISTS
artist wiki

mp3bear.com
song lyrics / contact us / privacy policy / tabspace toolbar
Copyright 2004 - 2014 TabSpace.com - All Rights Reserved.
song: red white and blue guitar tabs by lynyrd skynyrd

0.012