:: Guitar & Bass Tabs Make Home Page
A B C D E F G H I J K L M N O P Q R S T U V W X Y Z #

  for    

On TABSPACE
Info About This Tab
Artist: Tokio Hotel
Tab Type: Bass
Difficulty: novice
Rate This Tab!
tokio hotel - reden (bass)
tabbeb by : deinebeepstinkt
intro :
G---------------------------------|
D---------------------------------|
A-2-2-2-2-0-0-0-0-5-5-5-----------|
E------------------------5--5-5-5-|

verse :
G-----------------------------------------|
D-----------------------------------------|        play 6 times
A-2-2-2-2-0-0-0-0-4-4-4-------------------|
E------------------------4--4-4-4---------|

G-----------------------------------------|
D-----------------------------------------|        play 3 times
A-2-2-2-2-0-0-0-0-5-5-5-------------------|
E------------------------5--5-5-5---------|

G---------------------|
D---------------------|   play once (leave this out in the 2nd verse)
A---------------------|
E-3333-3333-3333-3333-|

chorus :

G-------------------------------|
D-------------------------------|   play 5 times
A-5-5-5-5-----------------------|
E--------0-0-0-0--6-6-6-5-5-5-5-|

bright (after 2nd chorus)

G---------------------------|
D---------------------------|
A-11111111------------------|
E---------11111111-11111111-|

pre chorus :

G--------------------------------------------------------|
D--------------------------------------------------------|
A5555-0000---------------5-5-5-5-0-0-0-0-----------------|
E----------2-2-2--4-4-4-4----------------0-0-0-0-0-0-0-0-|

play chorus til end

enjoy !! if there are any problems mail me : mis.fits@freenet.de


Share "Reden" by Tokio Hotel


TOP 10 TABS

FRESH NEW TABS

ALL ARTISTS
artist wiki

mp3bear.com
song lyrics / contact us / privacy policy / tabspace toolbar
Copyright 2004 - 2014 TabSpace.com - All Rights Reserved.
song: reden bass tabs by tokio hotel

0.015