:: Guitar & Bass Tabs Make Home Page
A B C D E F G H I J K L M N O P Q R S T U V W X Y Z #

  for    

On TABSPACE
Info About This Tab
Artist: Hank Iii And Assjack
Tab Type: Guitar
Rate This Tab!
E-----------------|------------------|----------------|
B-----------------|------------------|----------------|
G-15~~~~~~~~~-----|-14-13-12~~~~~~~~~|-11-10-9~~~~~~~~|
D-14~~~~~~~~~-----|-13-12-11~~~~~~~~~|-10-9--8~~~~~~~~|
A-12~~~~~~~~~-----|-11-10-9~~~~~~~~~~|-8--7--6~~~~~~~~|
E-12~~~~~~~~~-----|-11-10-9~~~~~~~~~~|-8--7--6~~~~~~~~|
(Strum fast)

E-----------------|---------------|
B-----------------|---------------|
G-8-7-------------|---------------|
D-7-6-------------|---------------|
A-5-4-------------|---------------|
E-5-4---1-2-1-2-1-|2--------------|


~=vibrato/strum fast repeatedly 

http://www.hank3.com/


Share "Redneck Ride Intro" by Hank Iii And Assjack


TOP 10 TABS

FRESH NEW TABS

ALL ARTISTS
artist wiki

mp3bear.com
song lyrics / contact us / privacy policy / tabspace toolbar
Copyright 2004 - 2014 TabSpace.com - All Rights Reserved.
song: redneck ride intro guitar tabs by hank iii and assjack

0.003