:: Guitar & Bass Tabs Make Home Page
A B C D E F G H I J K L M N O P Q R S T U V W X Y Z #

  for    

On TABSPACE
Info About This Tab
Artist: Tokio Hotel
Tab Type: Bass
Rate This Tab!
- Intro; Verso1; Ritornello 1 SOLO CHITARRA -

PRE VERSE:                           

[Rescue meee.. Rescue mee] [1.00]
 
|------------|
|------------|
|----2-------|
|-0-----3--2-| x2


VERSO2:

[We lied when we were dreaming..] [1.09]

|------------------------|    |------------|
|------------------------|    |------------|
|----2--------2--3--5--0-|    |----2-------|
|-0-----3--2-------------| x2 |-0-----3--2-| x2


PRE RITORNELLO2:  RITORNELLO2:

[What I fear...] [Come on rescue me..]                  [You and me..]

|------|------|  |------------|------------|------------|------------------|
|------|------|  |------------|------------|------------|------------------|
|-0--3-|-0--0-|  |-3--5-----2-|-3--5--0--0-|-3--5-------|-3--3--5--5-------|
|------|------|  |-------0----|------------|-------0--0-|-------------0--0-|


INTERLUDE:                            

[The walls are coming closer..] [2.17]

|------------|   |------------|
|------------|   |------------|
|-3--5-------|   |-0--3--0--0-|
|-------0--0-|x2 |------------|


PRE RITORNELLO3:     

[Come on rescue me..] [2.40]

- SOLO CHITARRA -


      RITORNELLO:

      [Come on rescue me..]                  [You and me..] FINE:

|---| ------------|------------|------------|------------| ------|
|---| ------------|------------|------------|------------| ------|
|-0-| -3--5-----2-|-3--5--0--0-|-3--5-------|-3--3--5--5-| ------|
|---| -------0----|------------|-------0--0-|------------| -0--0-|

[Il basso suona sempre in corrispondenza dei bassi della chitarra]

Tab by >BaD.TiGeR<


Share "Rescue Me" by Tokio Hotel


TOP 10 TABS

FRESH NEW TABS

ALL ARTISTS
artist wiki

mp3bear.com
song lyrics / contact us / privacy policy / tabspace toolbar
Copyright 2004 - 2014 TabSpace.com - All Rights Reserved.
song: rescue me bass tabs by tokio hotel

0.002