:: Guitar & Bass Tabs Make Home Page
A B C D E F G H I J K L M N O P Q R S T U V W X Y Z #

  for    

On TABSPACE
Info About This Tab
Artist: Tesla
Tab Type: Guitar
Difficulty: intermediate
Rate This Tab!
ok first of all i kno the solo aint right its the first solo that ive tryed to tab by 
so its not right but its a base for anyone the wants to correct it...
if u do correct parts of it i would appreciate it if u would let me kno so i can play it 
too...
and also i kno its was done by ufo first but the tesla version has a different solo and 
wanted to learn that one so here is the song...........

artist: tesla
Ablum: real to reel
song: rock bottom
standard tuning i think(not sure)
e
b
g
d
a
E

Verse
E|----------------------------------------------------------------------|
B|----------------------------------------------------------------------|
G|----------------------------------------------------------------------|
D|---7---5-------5-------------------7---5-------5---------------5------|
A|-----------6-7---------5-7-5---------------6-7---------5-7-5----------|
E|-0---0---0-------0-6-7-------7---0---0---0-------0-6-7-------7--------|

Chorus
E|------------------------------------|
B|------------------------------------|
G|-7-7-9--7-7-9--7-7-9---------7-9----|
D|-7-7-9--7-7-9--7-7-9--10-9-7-7-9----|
A|-5-5-7--5-5-7--5-5-7--10-9-7-5-7----|
E|-----------------------8-7-5--------|

Verse

Chorus

Bridge
E|------------------------|
B|------------------------|
G|-7--6--9--12--7--6------|
D|-7--6--9--12--7--6------|
A|-5--4--7--10--5--4------|
E|------------------------|

Lead Bridge
E|-----------------------------------|----------------------------------------------------|
B|-----------------------------------|--------20-22b--22-20-19-20-19----------------------|
G|-------19-21b-21-19----------------|--19-21-------------------------19-21---------------|
D|-19-21--------------21-19-19-17-19-|----------------------------------------------------|
A|-----------------------------------|----------------------------------------------------|
E|-----------------------------------|----------------------------------------------------|

Solo
E|--------------------------------------------------------------------------------------------|
B|--------------------------------------------------------------------------------------------|
G|---------------------9s--7s--6s--4s---4-----------------------------------------------------|
D|----------------9-7---------------------7-6-7--7-5-4---4-5-5--7-5-5-4--5-4-----------7-9bv--|
A|-7--7-9--7-9-10--------------------------------------7---------------------5-7---7-9--------|
E|--------------------------------------------------------------------------------------------|

E|---------------------------------------------------------------|
B|---------------------------------------------------------------|
G|---------------------------------------------------------------|
D|-9s11s12s16-16-19-17-16-17-16-12--11-12-14-12-11--11-12--------|
A|--------------------------------------------------------14-----|
E|---------------------------------------------------------------|

E|------------------------------------------------------------------------------------------|
B|----------------------------------------------------------------8-7---7-------------------|
G|-------------------------------------------7-9-9-7-9bb-7-9b-7-9-----9---9-7-9-7---7-------|
D|-----7-9-7v-----7-9-7-9-7---7v-----7-9-7-9--------------------------------------9---------|
A|-7-9--------7-9-----------9----7-9--------------------------------------------------------|
E|------------------------------------------------------------------------------------------|

i have no idea about this part........................
E|---------------------------------------------------|
B|---------------------------------------------------|
G|-797979--------------------------------------------|
D|--------797979-575757------------------------------|
A|----------------------797979-79577957v-------------|
E|---------------------------------------------------|


E|-17-14-17-15----15-14----14-12----12-10----10-9----9-7---7-5---5-----|
B|-------------17-------15-------14-------12------10-----9-----7---7b--|
G|---------------------------------------------------------------------| *3
D|---------------------------------------------------------------------|
A|---------------------------------------------------------------------|
E|---------------------------------------------------------------------|

E|------------------------------------------------|
B|-----7-8-7-8-8b--7-8-7b---7---------------------|
G|-7-9--------------------9---9b-7-9-7b-7-9-------| *2
D|------------------------------------------9b----|
A|------------------------------------------------|
E|------------------------------------------------|

E|------------------------------------------------------------------------------------------|
B|-----7-8-7-8-8b-8-7--------------------------------7-8b-8-7-------------------------------|
G|-7-9----------------7b-7-9-9b-9-7-9b-7-9-------7-9----------7b-7-9-9b-9b-7-9b-7-9---------|
D|-----------------------------------------9vs4-------------------------------------9vs4----|
A|------------------------------------------------------------------------------------------|
E|------------------------------------------------------------------------------------------|

E|-----------|    A    |----------------|    A    |---------------------------|
B|-----------|  bunch  |----------------|  bunch  |-s121215121214121251121214-|
G|-----------|   of    |-----457754-----|   of    |---------------------------| a bunch 
times
D|-475475475-|  times  |-457--------754-|  times  |---------------------------|
A|-----------|         |----------------|         |---------------------------|
E|-----------|         |----------------|         |---------------------------|
thats all i have so far ill put more when i find out  more of the solo


Share "Rock Bottom" by Tesla


TOP 10 TABS

FRESH NEW TABS

ALL ARTISTS
artist wiki

mp3bear.com
song lyrics / contact us / privacy policy / tabspace toolbar
Copyright 2004 - 2014 TabSpace.com - All Rights Reserved.
song: rock bottom guitar tabs by tesla

0.009