:: Guitar & Bass Tabs Make Home Page
A B C D E F G H I J K L M N O P Q R S T U V W X Y Z #

  for    

On TABSPACE
Info About This Tab
Artist: Misc Television
Tab Type: Guitar
Rate This Tab!
...ROOBARB AND CUSTARD... TV Theme
-------------------------.........

*from the TV Series 1974*


*INSTRUMENTAL*


Verse 1:

    C      G  C      G
e|----------------------|
B|--5-6-8--4--5-6-8--4--|
G|----------------------|
D|----------------------|
A|----------------------|
E|----------------------|

    C      Eb   G
e|---------6-6-----|
B|--5-6-8-------8--|
G|-----------------|
D|-----------------|
A|-----------------|
E|-----------------|

    C      G  C      G
e|----------------------|
B|--5-6-8--4--5-6-8--4--|
G|----------------------|
D|----------------------|
A|----------------------|
E|----------------------|

    E    D    C
e|---------------|
B|--5-5--3-3--1--|
G|---------------|
D|---------------|
A|---------------|
E|---------------|

Bridge 1:

F, C
Bb  B, G

Verse 2:

    C      G  C      G
e|----------------------|
B|--5-6-8--4--5-6-8--4--|
G|----------------------|
D|----------------------|
A|----------------------|
E|----------------------|

    C      Eb   G
e|---------6-6-----|
B|--5-6-8-------8--|
G|-----------------|
D|-----------------|
A|-----------------|
E|-----------------|

    C      G  C      G
e|----------------------|
B|--5-6-8--4--5-6-8--4--|
G|----------------------|
D|----------------------|
A|----------------------|
E|----------------------|

    E    D    C
e|---------------|
B|--5-5--3-3--1--|
G|---------------|
D|---------------|
A|---------------|
E|---------------|

Outro:

   (G)    C
e|--3-5-7-8---8-8--|
B|-----------------|
G|-----------------|
D|-----------------|
A|-----------------|
E|-----------------|


CHORD DIAGRAMS:
---------------

   C       G       Eb      E

 EADGBE  EADGBE  EADGBE  EADGBE
 x32010  320003  x68886  022100

   D       F       Bb      B

 EADGBE  EADGBE  EADGBE  EADGBE
 xx0232  133211  x13331  x24442
                                    ____
           _             __   __   |  __|  __    __
          | |   _   _   |  \ /  |  | |__   \ \  / /
  _____   | |  | | | |  |       |  |__  |   \ \/ /
 |  ___|  | |  | | | |  | |\_/| |   __| |    \  /
 | |= =   | |  | |_| |  | | = | |  |____|     | |
 | |      | |  |_____|  | |   | |   = = =     | |
 | |___   | |   = = =   | |   | |             | |
 |_____|  | |           |_|   |_|             | |
  = = =   | |_____       =     =    Tabbed by |_|
          |_______|  Joel from cLuMsY, 2008    =
           = = = =      (clumsyband@hotmail.com)


Share "Roobarb Custard" by Misc Television


TOP 10 TABS

FRESH NEW TABS

ALL ARTISTS
artist wiki

mp3bear.com
song lyrics / contact us / privacy policy / tabspace toolbar
Copyright 2004 - 2014 TabSpace.com - All Rights Reserved.
song: roobarb custard guitar tabs by misc television

0.01