:: Guitar & Bass Tabs Make Home Page
A B C D E F G H I J K L M N O P Q R S T U V W X Y Z #

  for    

On TABSPACE
Info About This Tab
Artist: Electric Six
Tab Type: Bass
Rate This Tab!
From the album Switzerland


Main Riff - Use some distortion

G|----------------------------|
D|----------------------------|
A|-0-0303--------0-0303-------|
E|--------0-0303--------0-0353|

Chorus

G|----------------------------|
D|----------------------------|
A|-3--5-----------------------|
E|-------55--55---------------|

Outro

G|-----------------------------------------|
D|-----------------------------------------|
A|00000000003333333333555555555588888888880|
E|-----------------------------------------|



Share "Rubber Rocket" by Electric Six


TOP 10 TABS

FRESH NEW TABS

ALL ARTISTS
artist wiki

mp3bear.com
song lyrics / contact us / privacy policy / tabspace toolbar
Copyright 2004 - 2014 TabSpace.com - All Rights Reserved.
song: rubber rocket bass tabs by electric six

0.007