:: Guitar & Bass Tabs Make Home Page
A B C D E F G H I J K L M N O P Q R S T U V W X Y Z #

  for    

On TABSPACE
Info About This Tab
Artist: Dag Nasty
Tab Type: Bass
Difficulty: novice
Rate This Tab!
Song: Safe
Band: Dag Nasty
Label: Dischord

INTRO: (sounds like its only played by the guitar but it doesnt really matter)

G----------------------------------------------|
D----------------------------------------------|  intro
A-----565---565---56-8-10~---------------------|
E--8------8-----8------------------------------|


G----------------------------------------------|
D---------------88-----------------------------|    verse
A------------------88--------------------------|
E--8>--6~--8>----------------------------------|


G----------------------------------------------|
D-----------------88---------------------------|     also verse  (just
A--------5>----------88------------------------|   alternate between the 2)
E---8>-------8>--------------------------------|

G----------------------------------------------|
D----------------------------------------------|   chorus
A------6-----6--65------53---------------------|
E--333---333-------666-------------------------|


G----------------------------------------------|
D----------------------------------------------|
A--66666-88888---------------------------------|  bridge into chorus
E----------------------------------------------|


G----------------------------------------------|
D----------------------------------------------|
A----------------------------------------------|  other bridge 1
E--3>--1>--------------------------------------|


G----------------------------------------------|
D----------------------------------------------|
A----------------------------------------------|   other bridge 2
E--3>--6>--1>----------------------------------|

you can
figure out the order of all of the pieces yourself its not a hard song.

- tabbed by samgrysavage*


Share "Safe" by Dag Nasty


TOP 10 TABS

FRESH NEW TABS

ALL ARTISTS
artist wiki

TabSpace.com / contact us / privacy policy / tabspace toolbar
Copyright 2004 - 2020 TabSpace.com - All Rights Reserved.
song: safe bass tabs by dag nasty