:: Guitar & Bass Tabs Make Home Page
A B C D E F G H I J K L M N O P Q R S T U V W X Y Z #

  for    

On TABSPACE
Info About This Tab
Artist: Xandria
Tab Type: Guitar
Rate This Tab!
PTL                   Xandria – Save my life




Tabbed by: Sanjeev George and Thomas George
Contact us at SanjeevGeorge123@yahoo.co.in


Tuning: Drop D

| ~  let ring
| .  palm mute
| x  Mute note


Intro with Heavy Distortion
e|----------------------------------------------------------------|
B|----------------------------------------------------------------|
G|----------------------------------------------------------------|
D|----5~----1~----3~----0~----0-0-0-0----5~----1~----5~----7~-----|
A|----5~----1~----3~----0~----0-0-0-0----5~----1~----3~----7~-----|
D|----5~----1~----3~----0~----0-0-0-0----5~----1~----------7~-----|
                              . . . 

Verse 1(“my soul…”) – no guitars

Chorus 1 (“Save my life save my life…”)
e|--------------------------------------------------------------------------|
B|--------------------------------------------------------------------------|
G|--------------------------------------------------------------------------|
D|----5~----1~----3~----0~----0-0-0-0----5~----1~----5~----7~----8--7—-5~---| 
A|----5~----1~----3~----0~----0-0-0-0----5~----1~----3~----7~----8--7--5~---|
D|----5~----1~----3~----0~----0-0-0-0----5~----1~----------7~----8--7--5~---|
                              . . .

Verse 2 – one guitar joins after a while
e|-------------------------------------------------|
B|-------------------------------------------------|
G|-------------------------------------------------|
D|----12-12-x-12-12-12-x-x-x-12-x-12-12-12-12------|
A|----10-10-x-10-10-10-x-x-x-10-x-10-10-10-10------|
D|-------------------------------------------------|

e|-----------------------------------------|
B|-----------------------------------------|
G|-----------------------------------------|
D|----8-8-x-8-8-8-x-x-x-8-x-8-8-8-8--------|
A|----6-6-x-6-6-6-x-x-x-6-x-6-6-6-6--------|
D|-----------------------------------------|

e|--------------------------------------------------|
B|--------------------------------------------------|
G|--------------------------------------------------|
D|----5-5-x-5-5-5-x-x-x-5-x-5-5-5-5-----7-7-7~------|
A|----3-3-x-3-3-3-x-x-x-3-x-3-3-3-3-----5-5-5~------|
D|--------------------------------------------------|

Chorus 2
e|----------------------------------------------------------------|
B|----------------------------------------------------------------|
G|----------------------------------------------------------------|
D|----5~----1~----3~----0~----0-0-0-0----5~----1~----5~----7~-----|
A|----5~----1~----3~----0~----0-0-0-0----5~----1~----3~----7~-----|
D|----5~----1~----3~----0~----0-0-0-0----5~----1~----------7~-----|
                              . . .
Bridge (“save my life….life……” high pitched)
e|------------------------------------------------------|
B|------------------------------------------------------|
G|------------------------------------------------------|
D|-1~----3~----5~----7~----8~----5~----3~----3~---------|
A|-1~----3~----5~----7~----8~----3~----1~----1~---------|
D|-1~----3~----5~----7~----8~---------------------------|

e|----------------------------------------------------------|
B|----------------------------------------------------------|
G|----------------------------------------------------------|
D|---555----555----111----111----555----555----7~-----------|
A|---555----555----111----111----333----333----5~-----------|
D|---555----555----111----111------------------0~-----------|
     
Chorus till end

Last chorus ends with
e|------------------------|
B|------------------------|
G|------------------------|
D|--8--7--5~--------------|
A|--8--7--5~--------------|
D|--8--7--5~--------------|


Please rate it. ……Thank you. 



Share "Save My Life" by Xandria


TOP 10 TABS

FRESH NEW TABS

ALL ARTISTS
artist wiki

mp3bear.com
song lyrics / contact us / privacy policy / tabspace toolbar
Copyright © 2004 - 2014 TabSpace.com - All Rights Reserved.
song: save my life guitar tabs by xandria

0.016