:: Guitar & Bass Tabs Make Home Page
A B C D E F G H I J K L M N O P Q R S T U V W X Y Z #

  for    

On TABSPACE
Info About This Tab
Artist: Tokio Hotel
Tab Type: Guitar
Difficulty: intermediate
Rate This Tab!
Made By Dryndal - Polska

Intro (wersja 1):
Intro (version 1):
E|------------------------|
B|------------------------|
G|2-----2-----------------|
D|0-----0---0-010--0------|
A|---------------3-----0--|
E|------------------------|
 |x     x     x     x     x <-- Te krzyżyki, to tylko taka mała pomoc
rytmiczna... (This is just for rhythm orientation...)

Intro (wersja 2):
Intro (version 2):
E|------------------------|
B|------------------------|
G|------------------------|
D|7-----7-----------------|
A|5-----5---5-565--5------|
E|---------------8-----5--|
 |x     x     x     x     x
hammer-on's & pull-off's

Przejście przed zwrotką:
Interlude before the vers:
d B

Ta najcieńsza struna :p
The thin string :p
E|8\5-5----5--5-5-5-5\1--1-1--- <-- zczajcie jak to gra w oryginale :D Listen to the 
to figgure the rhythm out...


Przejście przed refrenem:
Interlude before the chorus:
G G G G G G G G B B B B B B B <-- każde G i B to jeden dźwięk... Chwytami 
Each G & B means 1 hit... Play the chords...


Ref.:
Chorus:
Intro x3 +
  B     B     F  F G  G
E|------------------------|
B|------------------------|
G|------------------------|
D|2-----2-----------------|
A|0-----0-----3--3-5--5---|
E|------------1--1-3--3---|1/4 Refrenu :) 1/4 of the chorus...
 |x     x     x     x     x

czyli refren w całości to Intro (wersja 1 lub 2) 3 razy zagrana plus raz 
"1/4 refrenu" na koniec
so the chorus is the Intro (version 1 or 2) played 3 times plus the "1/4 of the chorus" 
the end


Główne przejście:
Main interlude:
D         B                                   C
Schrei! Zurück zum Nullpunkt jetzt kommt eure Zeit
G                                  A
Lasst sie wissen, wer ihr wirklich seid...

Zamiast chwytów, albo jako 2 gitarka można tam grać:
Instead of playing the chords, or as a second guitar you can play:
E|5---------5-565--5------|
B|---------------8--------|
G|------7-----------------|
D|------------------------|
A|------------------------|
E|------------------------|
 |x     x     x     x     x

To na tyle... :D
Thats that... :D


Share "Schrei" by Tokio Hotel


TOP 10 TABS

FRESH NEW TABS

ALL ARTISTS
artist wiki

mp3bear.com
song lyrics / contact us / privacy policy / tabspace toolbar
Copyright © 2004 - 2014 TabSpace.com - All Rights Reserved.
song: schrei guitar tabs by tokio hotel

0.013