:: Guitar & Bass Tabs Make Home Page
A B C D E F G H I J K L M N O P Q R S T U V W X Y Z #

  for    

On TABSPACE
Info About This Tab
Artist: Tokio Hotel
Tab Type: Bass
Difficulty: intermediate
Rate This Tab!
0.00 Intro/Verse
G|----0--------------------------|
D|1-----1-0---0---------------0--|
A|--------------1---1-1-0--------|
E|------------------------3-----3|x9

G|----3-----3-------3-------3----|
D|1-----1-----1-0-----0-0-----0--|
A|-------------------------------|
E|-------------------------------|

0.40 Chorus
G|-------------------------------|
D|3---3---1---1-0---0-0-0---0-0-0|
A|-------------------------------|
E|-------------------------------|

G|-------------------------------|
D|3---3---1---1-0---0-0-0---1-2-3|
A|-------------------------------|
E|-------------------------------|

G|-------------------------------|
D|3---3---1---1-0---0-0-0---0-0-0|
A|-------------------------------|
E|-------------------------------|

G|-------------------------------|
D|1---1-----1-1-0-----0-0---0-0-0|
A|-------------------------------|
E|-------------------------------|

0.57 Verse

1.38 Chorus

1.54
G|----0--------------------------|
D|1-----1-0---0---------------0--|
A|--------------1---1-1-0--------|
E|------------------------3-----3|x4

2.10 Bridge
G|----3-----3-------3-------3----|
D|1-----1-----1-0-----0-0-----0--|
A|-------------------------------|
E|-------------------------------|x4

2.27
G|-------------------------------|
D|1---1-----1-1-0-----0-0---1-2-3|
A|-------------------------------|
E|-------------------------------|

2.31 Chorus x2

3.03 Outro
G|----3-----3-------3-------3----|
D|1-----1-----1-0-----0-0-----0>-|
A|-------------------------------|
E|-------------------------------|


Share "Schwarz" by Tokio Hotel


TOP 10 TABS

FRESH NEW TABS

ALL ARTISTS
artist wiki

mp3bear.com
song lyrics / contact us / privacy policy / tabspace toolbar
Copyright 2004 - 2014 TabSpace.com - All Rights Reserved.
song: schwarz bass tabs by tokio hotel

0.01