:: Guitar & Bass Tabs Make Home Page
A B C D E F G H I J K L M N O P Q R S T U V W X Y Z #

  for    

On TABSPACE
Info About This Tab
Artist: Tokio Hotel
Tab Type: Guitar
Difficulty: intermediate
Rate This Tab!
Made By Dryndal - Polska

Intro + Zwrotka
Intro + Vers
(wsumie na bas, ale można na zwykłej gitarce)
(it's played on a Bass guitar, but you can play it on a guitar to)
E|-------------------------------|
B|-------------------------------|
G|----0--------------------------|
D|1-----1-0---0---------------0--|
A|--------------1---1-1-0--------|
E|------------------------3-----3|x9

po 9-tym razie to:
after the 9-th time:
E|-------------------------------|
B|-------------------------------|
G|----3-----3-------3-------3----|
D|1-----1-----1-0-----0-0-----0--|
A|-------------------------------|
E|-------------------------------|x1

Zamiast tej kwestii można grać:
Instead of thi you can play:
E|-------------------------------|
B|3---3-3-3---3-3---3-3-3-3---3--|<-- najlepiej (najwygodniej) trzymać mały
G|3---3-0-0---0-3---3-3-0-0---0--|    palec cały czas na tej strunie...
D|1---1-3-------1---1-1-3--------|    its most comfortable to put your pinky
A|-------------------------------|    in this position...
E|-------------------------------|x8

E|-------------------------------|
B|3---3-----3-3-3-----3-3---3-3-3|<-- - | | -
G|3---3-----3-3-3-----3-3---3-3-3|
D|1---1-----1-1-0-----0-0---0-0-0|
A|-------------------------------|
E|-------------------------------|x1
Gitarka (Tom) wchodzi po pierwszej (1 raz zagranej) kwestii basa i dlatego tam pisze x8
The guitar (Tom) begins to play after 1 part played by the Bass thats why it's  x8


Refren (Chorus):
Wersja 1 (Version 1):
Der Blick zurück ist schwarz...
E|-------------------------------|
B|-------------------------------|
G|5---5---3---3-2---2-2-2---2-2-2|
D|3---3---1---1-0---0-0-0---0-0-0|
A|-------------------------------|
E|-------------------------------|x3

E|-------------------------------|
B|-------------------------------|
G|3---3-----3-3-3-----3-3---3-3-3|
D|1---1-----1-1-0-----0-0---0-0-0|
A|-------------------------------|
E|-------------------------------|x1

Wersja 2 (Version 2):
Der Blick zurück ist schwarz...
E|-------------------------------|
B|-------------------------------|
G|10--10--8---8-7---7-7-7---7-7-7|
D|10--10--8---8-7---7-7-7---7-7-7|
A|8---8---6---6-5---5-5-5---5-5-5|
E|-------------------------------|x3

E|-------------------------------|
B|-------------------------------|
G|8---8-----8-8-8-----8-8---8-8-8|
D|8---8-----8-8-8-----8-8---8-8-8|
A|6---6-----6-6-5-----5-5---5-5-5|
E|-------------------------------|x1

Grajcie albo 1 albo 2 wersje... To wsumie to samo,
ale dla waszej wygody dałem obydwie (do wyboru do koloru :D)
Play the version you find more comfortable...

To na tyle :D
Thats That :D


Share "Schwarz" by Tokio Hotel


TOP 10 TABS

FRESH NEW TABS

ALL ARTISTS
artist wiki

mp3bear.com
song lyrics / contact us / privacy policy / tabspace toolbar
Copyright © 2004 - 2014 TabSpace.com - All Rights Reserved.
song: schwarz guitar tabs by tokio hotel

0.038