:: Guitar & Bass Tabs Make Home Page
A B C D E F G H I J K L M N O P Q R S T U V W X Y Z #

  for    

On TABSPACE
Info About This Tab
Artist: Tokio Hotel
Tab Type: Guitar
Rate This Tab!
Tokio Hotel - Screamin'

e-mail: avrill_xx@yahoo.com

Tuning guitar 1: Drop D
       guitar 2: Eb

Guitar 1

Intro
e|---------------------------------|
B|--7/19~-----13--12---12/11----8--|
G|---------------------------------|
D|---------------------------------|
A|---------------------------------|
D|---------------------------------|

e|---------------------------------|
B|--7/19~-----13--12---12/11----8~-|
G|---------------------------------|
D|---------------------------------|
A|---------------------------------|
D|---------------------------------|

Verse
e|----------------------|
B|----------------------|
G|----------------------|
D|----9-----------------| x2
A|-9-----x-9-9-x--9--9--|
D|-9-----x-9-9-x-10-10--|

e|----------------------|
B|----------------------|
G|----------------------|
D|----------------------| x2
A|-x--x--x-x-x-x--x--x--|
D|-x--x--x-9-9-x-10-10--|

e|----------------------|
B|----------------------|
G|----------------------|
D|----9-----------------| x2
A|-9-----x-9-9-x--9--9--|
D|-9-----x-9-9-x-10-10--|

e|----------------------|
B|----------------------|
G|----------------------|
D|----------------------| x2
A|-x--x--x-x-x-x--x--x--|
D|-x--x--x-9-9-x-10-10--|

Refrain
On such a cold cold night...
e|----------------------------|
B|----------------------------|
G|------5-4----------7-9-7-9--|
D|----5-5-4--------------7-9--|
A|--2-------------------------|
D|----------------------------|

e|-----------------------------------|
B|-------------------------------0---|
G|--------------------2-2-2-2-2--2-2-|
D|-0-2-2-2-0-2-2-2----2-2-2-2-0--2-2-|
A|-0-0-0-0-0-0-0-0----0-0-0-0--------|
D|-----------------------------------|

Chorus
e|----------------------------------------|
B|----------------------------------------|
G|----------------------88888888-88888888-|
D|--99999999--55555555--88888888-88888888-| x2
A|--99999999--55555555--66666666-66666666-|
D|--99999999--55555555--------------------|

e|----------------------------------------|
B|----------------------------------------|
G|----------------------------------------|
D|--99999999--55555555--66666666-66666666-|
A|--99999999--55555555--77777777-77777777-|
D|--99999999--55555555--66666666-66666666-|

e|----------------------------------------|
B|----------------------------------------|
G|----------------------88888888-88888888-|
D|--99999999--55555555--88888888-88888888-| x2
A|--99999999--55555555--66666666-66666666-|
D|--99999999--55555555--------------------|
repeat this

Bridge
4 measures rest

Solo
e|--------------------x-x-/10--x-x-/10-|
B|--------------------x-x--0---x-x--0--|
G|-------1/2----------x-x--x---x-x--x--|
D|---0----------0-----x-x--x---x-x--x--|
A|-2---2------2---2---0-0--x---0-0--x--|
D|--------------------0-0--x---0-0--x--|

e|--------------------x-x-/10--x-x-/10-|
B|--------------------x-x--0---x-x--0--|
G|--------------------x-x--x---x-x--x--|
D|---9-9-9/7-7/6-6----x-x--x---x-x--x--|
A|---9-9-9/7-7/6-6----0-0--x---0-0--x--|
D|--------------------0-0--x---0-0--x--|

e|--------------------x-x-/10--x-x-/10-|
B|--------------------x-x--0---x-x--0--|
G|-------1/2----------x-x--x---x-x--x--|
D|---0----------0-----x-x--x---x-x--x--|
A|-2---2------2---2---0-0--x---0-0--x--|
D|--------------------0-0--x---0-0--x--|

e|--------------------x-x-/10--x-x-/10-|
B|--------------------x-x--0---x-x--0--|
G|--------------------x-x--x---x-x--x--|
D|---9-9-9/7-7/6-6----x-x--x---x-x--x--|
A|---9-9-9/7-7/6-6----0-0--x---0-0--x--|
D|--------------------0-0--x---0-0--x--|

screaming on top of the world...
e|-----------------------------------------|
B|-----------------------------------------|
G|-----------------------------------------|
D|-----------------------------------------|
A|-99999999--77777777--44444444--99999999--|
D|-99999999--77777777--44444444--99999999--|
p.m........................................

e|----------------------------------|
B|----------------------------------|
G|----------------------------------|
D|----------------------------------|
A|-55555555--77777777--22222222222--|
D|-55555555--77777777--22222222222--|
p.m................................

Then Chorus again

---------------------------------------------------------------------------
Guitar 2

tuning: Eb

Verse
e|-------------------|
B|-------------------|
G|-------------------| x4
D|-------------------|
A|-10---10---10---10-|
E|-8----8----8----8--|

e|--------------------|
B|--------------------|
G|--------------------|
D|--------------------|
A|-3---3---6---6------|
E|-1---1---4---4------|

I'm screaming on the top of the world!


Chorus

just strum the chords

C
Can you hear me
    G#                            E
Iam screaming from the top of the world
E
Can you hear me?
C
Don't you know that
    G#                           E
I'm screamin from the top of the world
E
Don't you feel me
     C
I'll scream till I'm bleeding
           G#
And I will crush through the ceiling

No you don't know what I'm feeling
And that I'm dying
of Trying, trying
e|-----------------------|
B|-----------------------|
G|-----------------------|
D|-7--7-7--7---7--7-7--7-|
A|-8--8-8--8---8--8-8--8-|
E|-5--5-5--5---5--5-5--5-|
      
C
Can you hear me
    G#                            E
Iam screaming from the top of the world
E
Can you hear me?


repeat Verses and chorus

Bridge

e|---------------|
B|---------------|
G|--5--5-5-x-5---|
D|--5--5-5-x-5---| x4
A|--3--3-3-x-3---|
E|---------------|

Solo (8 measures rest)

screaming on top of the world...
e|----------------------------------------------------|
B|----------------------------------------------------|
G|-------8-7---------8-7---------8-7---------8--7-----|
D|------------8------------------------10----------8--|
A|-------------------------10-------------------------|
E|----------------------------------------------------|

e|----------------------------------------------------|
B|----------------------------------------------------|
G|-------8-7---------8-7------------------------------|
D|------------10----------10--------------------------|
A|----------------------------------------------------|
E|----------------------------------------------------|


Chorus again


Share "Screamin" by Tokio Hotel


TOP 10 TABS

FRESH NEW TABS

ALL ARTISTS
artist wiki

mp3bear.com
song lyrics / contact us / privacy policy / tabspace toolbar
Copyright 2004 - 2014 TabSpace.com - All Rights Reserved.
song: screamin guitar tabs by tokio hotel

0.01