:: Guitar & Bass Tabs Make Home Page
A B C D E F G H I J K L M N O P Q R S T U V W X Y Z #

  for    

On TABSPACE
Info About This Tab
Artist: Misc Television
Tab Type: Bass
Rate This Tab!
G----7------------------------------|
D--------9--7-9-5-------------------|
A--7---7----------------------------|
E-----------------0-10-0-7--5-7-3---|

G------------------------------------------------|
D------------------------------X--------------5--|
A-----------5------------------------------------|
E--0--0-4-7----4--5-5--3-2-1-0---0-2-2-3-4-5-----|

G---------------------------------------------|
D----------------------------X--------------5-|
A--5------5-----------------------------------|
E---0-4-7----4--5-5--3-2-1-0---0-2-2-3-4-5----|

G-------------------------------------------------|
D--------------1------------------X-------------6-|
A--5-------0-3----0--1-1--------------------------|
E---0--1-1----------------4-3-2-1---1-3-3-4-5-6---|

G----7------------------------------|
D--------9--7-9-5-------------------|
A--7---7----------------------------|
E-----------------0-10-0-7--5-7-3---|

G-----------------------------------------------|
D-----------2------------------X--------------7-|
A-------1-4----1--2-2---------------------------|
E--2--2----------------5-4-3-2---2-4-4-5-6-7----|

G------------------------------------------------|
D------------------------------X--------------5^-|
A-----------5------------------------------------|
E--0--0-4-7----4--5-5--3-2-1-0---0-2-2-3-4-5-----|

G-----------|
D-----------|
A--5-5-6-7--|
E-----------|


Share "Seinfeld Theme Full" by Misc Television


TOP 10 TABS

FRESH NEW TABS

ALL ARTISTS
artist wiki

mp3bear.com
song lyrics / contact us / privacy policy / tabspace toolbar
Copyright 2004 - 2014 TabSpace.com - All Rights Reserved.
song: seinfeld theme full bass tabs by misc television

0.009