:: Guitar & Bass Tabs Make Home Page
A B C D E F G H I J K L M N O P Q R S T U V W X Y Z #

  for    

On TABSPACE
Info About This Tab
Artist: Vertical Horizon
Tab Type: Guitar
Rate This Tab!
I noticed that the solos for this song aren't on the tabs, so i decided to do them myself.

Tuning: one half-step lower than drop D tuning: Db, Ab, Db, Gb, Bb, Eb

The first solo goes like this:

e|---------------------------------------------------------------------------|
B|---------------------------------------------------------------------------|
G|---------------------------------------------------------------------------|
D|---10~~~~~~~~~~~~~~~~~~~~~~~~~~~~~~~~~~~~~~~~~~~~~~~~~~~~~~~~~~~~~~~~|
A|---------------------------------------------------------------------------|
E|---------------------------------------------------------------------------|

Use a lot of vibrato on that first note. hit it multiple times if you have to

e|-----------------------------------------------------------------------------------|
B|------------------------------------------------------------------------------10---|
G|10b12r10~-7-----------10b12r10~-7-----------12b13~-12b13r12p10h12------------------|
D|------------10p7h10---------------10p7h10-------------------------11~--------------|
A|------------------------------------------------------------------------12p10------|
E|-----------------------------------------------------------------------------------|

e|-----------------------------------------------------------------------------------|
B|----------------------------------------------13b15~~~~~~~~~~----------------------|
G|10b12r10~-7-----------10b12r10~-7--------------------------------------------------|
D|-------------10p7h10---------------10p7h10-----------------------------------------|
A|-----------------------------------------------------------------------------------|
E|-----------------------------------------------------------------------------------|

that's the first one. i'll get the second one up soon.

             ~RN'R


Share "Shackled Solo" by Vertical Horizon


TOP 10 TABS

FRESH NEW TABS

ALL ARTISTS
artist wiki

TabSpace.com / contact us / privacy policy / tabspace toolbar
Copyright 2004 - 2020 TabSpace.com - All Rights Reserved.
song: shackled solo guitar tabs by vertical horizon