:: Guitar & Bass Tabs Make Home Page
A B C D E F G H I J K L M N O P Q R S T U V W X Y Z #

  for    

On TABSPACE
Info About This Tab
Artist: Jake Smith
Tab Type: Guitar
Rate This Tab!
Jake Smith- Shady
www.jakesmithmusic.com
Tabbed By Denis Lafargue
Chords used: preatty sure these are the correct names of the chords
D#m7
X 6 8 6 7 6

C#/C
X 4 6 5 6 4

D/(C#/C)     This one is a C#/C with a D in the bass instead of a C#
X 5 6 5 6 4

G#
4 6 6 4 4 4

A#
6 8 8 6 6 6

F#
2 4 4 2 2 2
----------------------------------------------------------------------------

Intro: guitar 1
-6666--6--6666-6---4444--4--4444--4444----|
-7777--7--7777-7---6666--6--6666--6666----|
-6666--6--6666-6---5555--5--5555--5555----|
-8888--8--8888-8---6666--6--6666--6666----|
-6666--6--6666-6---4444--4--4444--5555----|
------------------------------------------|

intro: guitar 2
---------------------------------|
---------------------------------|
-10-11-13---10-11-13----10-------|
---------------------13----10----|
-----------------------------11--|
---------------------------------|

Verse 1:( Same chords as the intro)
D#m7
You wear your mask so well that not everyone can tell
           C#/C   D/(C#/C)
who your fooling
D#m7
Although its plain to see this is who your trying to be
          C#/C             D/(C#/C)
lets be honest, who are you kidding

Chorus:
        D#m7
This is how I see
            C#/C              A#                    G#
Everybodys crazy, everybodys shady thats just on my mind
                    D#m7
So why dont we stop trying to be
                     C#/C
something thats not likely
                      A#
everyone take a deep breath
                G#
get it off your mind we'll be doin fine

Intro

Verse 2:
D#m7
I know thats kind of harsh, should i smile and play the part
          C#/C     D/(C#/C)
that your use to
D#m7
or lets just tell the truth, instead of doin what we all do
         C#/C         D/(C#/C)
which is lie, not this time

Chorus

Bridge:G1

A#   G#        F#         G#
finally we'll change our hearts
A#       G#        F#
that is where it starts
    A#       G#           F#       G#
so lets just be the same face to face
   A#          G#      F#
as we are when we are apart

G2(played w/G1)                 last time add this after the 3
---------------------------------- ------------|
-6-7-4-6-2/1---------6-7-4-6------ ------------|
-------------3p1--------------3--- -5-6-5-3----|
-----------------4---------------- ------------|
---------------------------------- ------------|
---------------------------------- ------------|


Share "Shady" by Jake Smith


TOP 10 TABS

FRESH NEW TABS

ALL ARTISTS
artist wiki

mp3bear.com
song lyrics / contact us / privacy policy / tabspace toolbar
Copyright 2004 - 2014 TabSpace.com - All Rights Reserved.
song: shady guitar tabs by jake smith

0.017