:: Guitar & Bass Tabs Make Home Page
A B C D E F G H I J K L M N O P Q R S T U V W X Y Z #

  for    

On TABSPACE
Info About This Tab
Artist: Panic At The Disco
Tab Type: Bass
Rate This Tab!
Title: She's a Handsome Woman
Artist: Panic at the Disco
Album: Pretty.  Odd.
Tabbed by the99thaisle on 3/25/8

Intro
....1...2...3...4...1...2...3...4...1...2...3...4...1...2...3...4...
G:|-------------------------------1113~~~~~~~~~~~~~~~~~~~~~~~\------|
D:|-----------------------------------------------------------------|
A:|-----------------------------------------------------------------|
E:|-----------------------------------------------------------------|

"Go on!" [0:14]
....1...2...3...4...1...2...3...4...1...2...3...4...1...2...3...4...
G:|-----------------------------------------------------------------|
D:|-----------------------------------------------------------------|
A:|-----------------------------------------------------------------|
E:|-4~~~~~\-----4---4~~~~~\---------4~~~~~\-----4---4~~~~~\---------|


Verse [0:22]
....1...2...3...4...1...2...3...4...1...2...3...4...1...2...3...4...
G:|-----------------------------------------------------------------|
D:|-2~~~------------------------------------------------------------|
A:|-------------------------2---4h6-2---2-----------4h6-4-2-4-------|
E:|-----------------4---4-------------------2---2-------------4-----|

G:|-----------------------------------------------------------------|
D:|-2---2---2~~~----------------------------------------------------|
A:|-------------------------2---4h6-2---2-----------4h6-4-2-4~~~----|
E:|-----------------4---4-------------------2---2-------------------|

G:|-----------------------------------------------------------------|
D:|-2---2---2-------------------------------------------------------|
A:|-------------------------2---4h6-2---2-----------4h6-4-2-4~~~----|
E:|-----------------4---4-------------------2---2-------------------|


"Go on!" [0:48]
....1...2...3...4...1...2...3...4...1...2...3...4...1...2...3...4...
G:|-----------------------------------------------------------------|
D:|-----------------------------------------------------------------|
A:|-----------------------------------------------------------------|
E:|-4~~~~~\-----4---4~~~~~\---------4~~~~~\-----4---4~~~~~\---------|


Verse (Continued) [0:56]
....1...2...3...4...1...2...3...4...1...2...3...4...1...2...3...4...
G:|-----------------------------------------------------------------|
D:|-2~~~------------------------------------------------------------|
A:|-------------------------2---4h6-2---2-----------4h6-4-2-4-------|
E:|-----------------4---4-------------------2---2-------------4-----|

G:|-----------------------------------------------------------------|
D:|-2---2---2~~~----------------------------------------------------|
A:|-------------------------2---4h6-2---2-----------4h6-4-2-4~~~----|
E:|-----------------4---4-------------------2---2-------------------|


Prechorus/Chorus [1:12]
....1...2...3...4...1...2...3...4...1...2...3...4...1...2...3...4...
G:|-----------------------------------------------------------------|
D:|---------------------3-------------------------------3-----------|
A:|-----------------------6-4-----6-------------6---------6-4---3---| x3
E:|-4---4---4---4---2-----------68--4---4---4-------2---------------|


"Go on!" [1:38]
....1...2...3...4...1...2...3...4...1...2...3...4...1...2...3...4...
G:|-----------------------------------------------------------------|
D:|-----------------------------------------------------------------|
A:|-----------------------------------------------------------------|
E:|-4~~~~~\-----4---4~~~~~\---------4~~~~~\-----4---4~~~~~\---------|

Verse [1:46]

Prechorus/Chorus [2:11]

Outro [2:36]
....1...2...3...4...1...2...3...4...1...2...3...4...1...2...3...4...
G:|-----------------------------------------------------------------|
D:|-----------------------------------------------------------------|
A:|-----------------------------------------------------------------|
E:|-4~~~~~\-----4---4~~~~~\---------4~~~~~\-----4---4~~~~~\---------|

G:|-----------------------------------------------------------------|
D:|-----------------------------------------------------------------|
A:|-----------------------------------------------------------------|
E:|-4~~~~~\-----4---4~~~~~\---------4~~~~~\-----4---4~~~~~\-------2-|

G:|-----------------------------------------------------------------|
D:|-----------------------------------------------------------------|
A:|-----------------------------------------------------------------|
E:|-4~~~~~\-----4---4~~~~~\-------2-4~~~~~\-----4---4~~~~~\---2-4-2-|

G:|-----------------------------------------------------------------|
D:|-----------------------------------------------------------------|
A:|-----------------------------------------------------------------|
E:|-4-------------------------------4~~~~~\-----4---4~~~~~\---------|

More Pretty. Odd. tabs coming soon!  I hope you find this one useful, and please
rate! - the99thaisle


Share "Shes A Handsome Woman" by Panic At The Disco


TOP 10 TABS

FRESH NEW TABS

ALL ARTISTS
artist wiki

mp3bear.com
song lyrics / contact us / privacy policy / tabspace toolbar
Copyright 2004 - 2014 TabSpace.com - All Rights Reserved.
song: shes a handsome woman bass tabs by panic at the disco

0.017