:: Guitar & Bass Tabs Make Home Page
A B C D E F G H I J K L M N O P Q R S T U V W X Y Z #

  for    

On TABSPACE
Info About This Tab
Artist: Electric Six
Tab Type: Guitar
Rate This Tab!
-------------------------------------------------------------------------------
			     Electric Six - She's White
------------------------------------------------------------------------------
Tabbed by: Guitar_&_bass_1	
Email:parnham89@hotmail.com

Tuning: Standard

Intro
e|-----------------------------------------------------|
B|-----4-4---4-4---4-4---4-4---4-4---4-4---4---4---4---|
G|-----4-4---4-4---4-4---4-4---4-4---4-4---4---4---4---|
D|-----4-4---4-4---4-4---4-4---4-4---4-4---4---4---4---|
A|-x/x-2-2-0-2-2-0-2-2-0-2-2-0-2-2-0-2-2-0-2-0-2-0-2---|
E|-x/x-------------------------------------------------|

Verse riff:
e|--------------3-3--3-3-3--0-0--0-0-0--0-0-0--0-0-0---|
B|0-4-4--4-4-4--33--3-3-3--2-2--2-2-2--2-2-2--2-2-2--0|
G|--4-4--4-4-4--0-0--0-0-0--2-2--2-2-2--2-2-2--2-2-2---|
D|--4-4--4-4-4--0-0--0-0-0--2-2--2-2-2--2-2-2--2-2-2---|
A|0-2-2--2-2-2--2-2--2-2-2--0-0--0-0-0--0-0-0--0-0-0--0|
E|--------------3-3--3-3-3-----------------------------|

Verse riff 2 w/pre chorus:
e|--------------3-3--3-3-3--0-0--0-0-0--0-0--0-0-0--1---3---1---2-2-2-2-2--|
B|-4-4---4-4-4--3-3--3-3-3--2-2--2-2-2--0-0--0-0-0--1---3---1---3-3-3-3-3--|
G|-4-4---4-4-4--0-0--0-0-0--2-2--2-2-2--1-1--1-1-1--2---0---2---2-2-2-2-2--|
D|-4-4---4-4-4--0-0--0-0-0--2-2--2-2-2--2-2--2-2-2--3---0---3---0-0-0-0-0--|
A|-2-2---2-2-2--2-2--2-2-2--0-0--0-0-0--2-2--2-2-2-------------------------|
E|--------------3-3--3-3-3--------------0-0--0-0-0-------------------------|

Chorus:
e|-------------2-2--0--0-0-0--0-0--0-0-0--3-3-2--0-0--|
B|-4-4--4-4-4--3-3--2--2-2-2--2-2--2-2-2--3-3-2--2-2--|
G|-4-4--4-4-4--2-2--2--2-2-2--2-2--2-2-2--0-0-2--2-2--|
D|-4-4--4-4-4--0-0--2--2-2-2--2-2--2-2-2--0-0-2--2-2--|
A|-2-2--2-2-2-------0--0-0-0--0-0--0-0-0--2-2-0--0-0--|
E|----------------------------------------3-3---------|
 |                                                    |
e|----------------------------------------------------|
B|-----15~~~~~----------------------------------------|
G|-----14b16~~----------------------------------------|
D|----------------------------------------------------|
A|----------------------------------------------------|
E|----------------------------------------------------|

Pre-verse:
e|-----------------------------------|
B|-4-4---4-4---4---4---4-------------|
G|-4-4---4-4---4---4---4-------------|
D|-4-4---4-4---4---4---4-------------|
A|-2-2-0-2-2-0-2-0-2-0-2-------------|
E|-----------------------------------|
 |                                   |
e|-----------------------------------|
B|---------------------5b7r5p3-------|
G|----------------------------4~~~~--|
D|-----------------------------------|
A|-----------------------------------|
E|-----------------------------------|
Note: The above lick is played only played going into the second verse.


Repeat Verse riffs 1 & 2, pre-chorus, chorus and pre-verse.

Solo (w/verse as backing)
e|------7-------7-------7-10-7-----------------------------------------------|
B|-7-10-7--7-10-7--7-10--------10-7------------------------------------------|
G|----------------------------------9-7----9b11-11-11-11-11r9-7---7----------|
D|--------------------------------------9~----------------------9------------|
A|---------------------------------------------------------------------------|
E|---------------------------------------------------------------------------|

e|---------------------------------------------------------------------------|
B|------------------------------7-----------9-7-----------9-7----------------|
G|-9b11-11-11-11-11-11-11r9-7---7-----------9-7-----------9-7----------------|
D|----------------------------9---9-7---7-9-----9-7---7-9-----9-7---7-9------|
A|------------------------------------9-------------9-------------9----------|
E|---------------------------------------------------------------------------|

e|----------7-7-10p7----7~---------------------------------------------------|
B|-----7-10----------10-----------6-8b10-8b10-8b10r8---6---------------------|
G|-7-9------------------------5-7--------------------7---7-5-----------------|
D|--------------------------7--------------------------------7~--------------|
A|---------------------------------------------------------------------------|
E|---------------------------------------------------------------------------|

e|-------------10-10-10-10-10/--|
B|-10-12-10-12-10-10-10-10-10/--|
G|-10-12-10-12------------------|
D|------------------------------|
A|------------------------------|
E|------------------------------|

Verse, pre-chorus, chorus and pre-verse again (pre verse used as outro).


Share "Shes White" by Electric Six


TOP 10 TABS

FRESH NEW TABS

ALL ARTISTS
artist wiki

mp3bear.com
song lyrics / contact us / privacy policy / tabspace toolbar
Copyright 2004 - 2014 TabSpace.com - All Rights Reserved.
song: shes white guitar tabs by electric six

0.029