:: Guitar & Bass Tabs Make Home Page
A B C D E F G H I J K L M N O P Q R S T U V W X Y Z #

  for    

On TABSPACE
Info About This Tab
Artist: Tesla
Tab Type: Guitar
Rate This Tab!
SIGNS (Live)
Tesla
Tabbed by : bighabit69@iamwasted.com

THE CHORDS:

           D                  Dsus4                D5/A                  G/B
      x x 0 2 3 2          x x 0 2 3 3          x 0 0 2 3 x          x 2 0 0 3 x

        A9sus4                  A                    G                   B5
      x 0 0 0 0 0          x 0 2 2 2 0          3 2 0 0 3 3          x 2 4 4 x x

          Bm                  Cadd2                G5/A                 D/F#
      x 2 4 4 3 2          x 3 2 0 3 3          x 0 0 0 3 3          2 0 0 2 3 2

          A6                  Dadd4
      x 0 4 2 2 0          x x 0 0 3 2

Standard tuning (E A D G B E) 


 Intro
 
  D    Dsus4  DsDs4    DsDs4D5G/B
 
  Gtr I
  | ||||||||  | | | || | | || |
  / ////////  / / / // / / // /

  Gtr II
|-----------|-------------------||
|-----------|---------------3-3-||
|-----------|-9-7-7S=2-4-2--2-0-||
|-----------|-0-0-0--0-0-0--0-0-||
|-----------|---------------0-2-||
|-----------|-------------------||


   Verse
    
    Gtrs I, III
||----------------|-----3p2-------3-3-0-0-|
||o-----1------0--|---------3-----3-3-0-0-|
||------0------0--|-----------2---0-0-0-0-|
||----2------0----|---0-----------0-0-0-0-|
||o-3------2------|-0-------------2-2-0-0-|
||----------------|-------------3-3-3-----|


  D    AAsus4A9sGs4  AAsus4B5
  Gtrs I, III
  ||||||||||||  |||||||||||||
  ////////////  /////////////

|-------------|--------------|
|-------------|--------------|
|-------------|--------------|
|-------------|--------------|
|-------------|--------------|
|-------------|--------------|


  Bm         A9sGs4
  ||||||||||||  ||||||||||||
  ////////////  ////////////

|-------------|-------------|
|-------------|-------------|
|-------------|-------------|
|-------------|-------------|
|-------------|-------------|
|-------------|-------------|


  D   AAsus4    G     AAsus4A9sus4
  ||||||||||||  ||||||||||||||
  ////////////  //////////////

|-------------|----------------|
|-------------|----------------|
|-------------|----------------|
|-------------|----------------|
|-------------|----------------|
|-------------|----------------|


  D   Cadd2G    D   G
  ||||||||||||  ||||||||||
  ////////////  //////////

|-------------|-----------|
|-------------|-----------|
|-------------|-----------|
|-------------|-----------|
|-------------|-----------|
|-------------|-----------|


             
     
  D   AAsus4G5/ACadd2
  ||||||||||||  ||||||||||||
  ////////////  ////////////

|-------------|-------------|
|-------------|-------------|
|-------------|-------------|
|-------------|-------------|
|-------------|-------------|
|-------------|-------------|


  D     DDus4  DsDs4    DsDs4D5G5/A
  |  | ||||||  | | | || | | || |
  /  / //////  / / / // / / // /

  Gtr II
|-2--2-------|--------------------||
|-3--3-------|---------------3-3-o||
|-2--2-------|-9-7-7S=2-4-2--2-0--||
|-0--0-------|-0-0-0--0-0-0--0-0--||
|------------|---------------0-2-o||
|------------|--------------------||


  
            D    DD/G#  A
  ||||||||||||  ||||||| | | |
  ////////////  /////// / o /

|-------------|--------------|
|-------------|--------------|
|-------------|--------------|
|-------------|--------------|
|-------------|--------------|
|-------------|--------------|


  A  A6A    AA A9sGs4 D    DDuDadd4
  ||||||||||||||  |||||||||||||
  ////o/////////  /////////////

|---------------|--------------|
|---------------|--------------|
|---------------|--------------|
|---------------|--------------|
|---------------|--------------|
|---------------|--------------|


  D      AAsus4     G   A9sus4
                
  ||||||||||||||||  |||||
  ////////////////  /////

|-----------------|------|
|-----------------|------|
|-----------------|------|
|-----------------|------|
|-----------------|------|
|-----------------|------|


  D   DDus4 DDusDDus4

  | ||||||  ||||||||
  / //////  ////////

|---------|----------||
|---------|----------||
|---------|----------||
|---------|----------||
|---------|----------||
|---------|----------||


 Guitar Solo
  D           Cadd2          G
  |     |    ||     |  | | | | | |
  /     /    //     /  / / / / / /

  Gtr II
                             ~
|-------------------------------------|
|-------------------------------10b12r|
|-9b10--9b10--9b10-(9)-7---7-7--------|
|------------------------9------------|
|-------------------------------------|
|-------------------------------------|


  D                       G
    |   |  |      | | | | | | |        | |||
    /   /  /      / / / / / / /        / ///

                                       ~
|------10-----------------------------------|
|-(10)----10-(10)-8p7-8p7-------------------|
|-------------------------9-7-9b10r(9)-7----|
|-------------------------------------------|
|-------------------------------------------|
|-------------------------------------------|


  D                         A9sus4    A                   A9susCadd2
   |     |     |      |   |  |  |      |  |     |   |   |  |
   /     /     /      /   /  /  /      /  /     /   /   /  /

|-------10-12-12b14r(12)----10-12b13==12-12-12-12r(12)----10-|
|-10h12------------------12----------------------------12----|
|------------------------------------------------------------|
|------------------------------------------------------------|
|------------------------------------------------------------|
|------------------------------------------------------------|


   |    |    | | | | | | |         | |     |  |
   /    /    / / / / / / /         / /     /  /

|-12------10-----------------------------------||
|----10s8----8p7-8p7--------------10-----------||
|--------------------9-7-9b10-(9)----9b10r(9)--||
|----------------------------------------------||
|----------------------------------------------||
|----------------------------------------------||


                 
  ~
|-2--2---3p2-2---|-3-2-2-2-3-2-2-------||
|-3--3---3---3-3-|-3-3-3-3-3-3-3-3-3---||
|-2--2-2-2---2-2-|-2-2-2-2-2-2-2-2-0-0-||
|-0--0-0-0---0-0-|-0-0-0-0-0-0-0-0-0---||
|------0---------|---------------0-2---||
|----------------|---------------------||


                Outro
 
  Cadd2          D   Cadd2G
  Gtrs I, III
  ||||||||||||   ||||||||||||
  ////////////   ////////////

|-------------||-------------|
|-------------||-------------|
|-------------||-------------|
|-------------||-------------|
|-------------||-------------|
|-------------||-------------|


  D    G       D    A9Aus4 G5/A
  |||||||||||  ||||||||||||||
  ///////////  //////////////

|------------|---------------|
|------------|---------------|
|------------|---------------|
|------------|---------------|
|------------|---------------|
|------------|---------------|


  Cadd2         D
  ||||||||||||  |
  ////////////  /

|-------------|-----*|
|-------------|-----*|
|-------------|-----*|
|-------------|-----*|
|-------------|-----*|
|-------------|-----*|


Share "Signs" by Tesla


TOP 10 TABS

FRESH NEW TABS

ALL ARTISTS
artist wiki

mp3bear.com
song lyrics / contact us / privacy policy / tabspace toolbar
Copyright 2004 - 2014 TabSpace.com - All Rights Reserved.
song: signs guitar tabs by tesla

0.014