:: Guitar & Bass Tabs Make Home Page
A B C D E F G H I J K L M N O P Q R S T U V W X Y Z #

  for    

On TABSPACE
Info About This Tab
Artist: Parokya Ni Edgar
Tab Type: Bass
Rate This Tab!
Song: Silvertoes
Band: Parokya Ni Edgar
Tabbed by: Gio Agudo


Verse I: Drums...


Interlude:
G|----------|----------------|----------|---------------|
D|---5-44-5-|----------------|---5-44-5-|---7-7/9-7-5-7-|
A|----------|-7-9-9/10-9-7-9-|-3--------|-5-------------|
E|-3--------|----------------|----------|---------------|


Verse II:
G|----------|----------------|----------|---------------|
D|---5-44-5-|----------------|---5-44-5-|---7-7/9-7-5-7-|
A|----------|-7-9-9/10-9-7-9-|-3--------|-5-------------|
E|-3--------|----------------|----------|---------------|

G|----------|----------------|----------|---------------|
D|---5-44-5-|----------------|---5-44-5-|---7-7/9-7-5-7-|
A|----------|-7-9-9/10-9-7-9-|-3--------|-5-------------|
E|-3--------|----------------|----------|---------------|

G|----------|----------------|----------|---------------|
D|---5-44-5-|----------------|---5-44-5-|---7-7/9-7-5-7-|
A|----------|-7-9-9/10-9-7-9-|-3--------|-5-------------|
E|-3--------|----------------|----------|---------------|

G|----------|----------------|----------|---------------|
D|---5-44-5-|----------------|---5-44-5-|---7-7/9-7-5-7-|
A|----------|-7-9-9/10-9-7-9-|-3--------|-5-------------|
E|-3--------|----------------|----------|---------------|

G|----------|----------------|----------|---------------|
D|---5-44-5-|----------------|---5-44-5-|---7-7/9-7-5-7-|
A|----------|-7-9-9/10-9-7-9-|-3--------|-5-------------|
E|-3--------|----------------|----------|---------------|


Refrain:
G|-----|-------|-----|---------|-----|-------|-----|---------|
D|-----|-------|-----|---------|-----|-------|-----|---------|
A|-7-7-|-5\3-3-|-----|-----3-3-|-7-7-|-5\3-3-|-----|-----3-3-|
E|-----|-------|-3-3-|-3h5-----|-----|-------|-3-3-|-3h5-----|


Verse III:
G|----------|----------------|----------|---------------|
D|---5-44-5-|----------------|---5-44-5-|---7-7/9-7-5-7-|
A|----------|-7-9-9/10-9-7-9-|-3--------|-5-------------|
E|-3--------|----------------|----------|---------------|

G|----------|----------------|----------|---------------|
D|---5-44-5-|----------------|---5-44-5-|---7-7/9-7-5-7-|
A|----------|-7-9-9/10-9-7-9-|-3--------|-5-------------|
E|-3--------|----------------|----------|---------------|

G|----------|----------------|----------|---------------|
D|---5-44-5-|----------------|---5-44-5-|---7-7/9-7-5-7-|
A|----------|-7-9-9/10-9-7-9-|-3--------|-5-------------|
E|-3--------|----------------|----------|---------------|

G|----------|----------------|----------|---------------|
D|---5-44-5-|----------------|---5-44-5-|---7-7/9-7-5-7-|
A|----------|-7-9-9/10-9-7-9-|-3--------|-5-------------|
E|-3--------|----------------|----------|---------------|

G|----------|----------------|----------|---------------|
D|---5-44-5-|----------------|---5-44-5-|---7-7/9-7-5-7-|
A|----------|-7-9-9/10-9-7-9-|-3--------|-5-------------|
E|-3--------|----------------|----------|---------------|


Adlib:
G|----------|----------------|----------|---------------|
D|---5-44-5-|----------------|---5-44-5-|---7-7/9-7-5-7-|
A|----------|-7-9-9/10-9-7-9-|-3--------|-5-------------|
E|-3--------|----------------|----------|---------------|

G|----------|----------------|----------|---------------|
D|---5-44-5-|----------------|---5-44-5-|---7-7/9-7-5-7-|
A|----------|-7-9-9/10-9-7-9-|-3--------|-5-------------|
E|-3--------|----------------|----------|---------------|

G|-----|-------|-----|---------|-----|-------|-----|---------|
D|-----|-------|-----|---------|-----|-------|-----|---------|
A|-7-7-|-5\3-3-|-----|-----3-3-|-7-7-|-5\3-3-|-----|-----3-3-|
E|-----|-------|-3-3-|-3h5-----|-----|-------|-3-3-|-3h5-----|


Verse IV:
G|----------|----------------|----------|---------------|
D|---5-44-5-|----------------|---5-44-5-|---7-7/9-7-5-7-|
A|----------|-7-9-9/10-9-7-9-|-3--------|-5-------------|
E|-3--------|----------------|----------|---------------|

G|----------|----------------|----------|---------------|
D|---5-44-5-|----------------|---5-44-5-|---7-7/9-7-5-7-|
A|----------|-7-9-9/10-9-7-9-|-3--------|-5-------------|
E|-3--------|----------------|----------|---------------|

G|----------|----------------|----------|---------------|
D|---5-44-5-|----------------|---5-44-5-|---7-7/9-7-5-7-|
A|----------|-7-9-9/10-9-7-9-|-3--------|-5-------------|
E|-3--------|----------------|----------|---------------|

G|----------|----------------|----------|---------------|
D|---5-44-5-|----------------|---5-44-5-|---7-7/9-7-5-7-|
A|----------|-7-9-9/10-9-7-9-|-3--------|-5-------------|
E|-3--------|----------------|----------|---------------|

G|----------|----------------|----------|---------------|
D|---5-44-5-|----------------|---5-44-5-|---7-7/9-7-5-7-|
A|----------|-7-9-9/10-9-7-9-|-3--------|-5-------------|
E|-3--------|----------------|----------|---------------|


Refrain:
G|-----|-------|-----|---------|-----|-------|-----|---------|
D|-----|-------|-----|---------|-----|-------|-----|---------|
A|-7-7-|-5\3-3-|-----|-----3-3-|-7-7-|-5\3-3-|-----|-----3-3-|
E|-----|-------|-3-3-|-3h5-----|-----|-------|-3-3-|-3h5-----|


Verse V: Do this 2 times
G|----------|----------------|----------|---------------|
D|---5-44-5-|----------------|---5-44-5-|---7-7/9-7-5-7-|
A|----------|-7-9-9/10-9-7-9-|-3--------|-5-------------|
E|-3--------|----------------|----------|---------------|

G|----------|----------------|----------|---------------|
D|---5-44-5-|----------------|---5-44-5-|---7-7/9-7-5-7-|
A|----------|-7-9-9/10-9-7-9-|-3--------|-5-------------|
E|-3--------|----------------|----------|---------------|

G|----------|----------------|----------|---------------|
D|---5-44-5-|----------------|---5-44-5-|---7-7/9-7-5-7-|
A|----------|-7-9-9/10-9-7-9-|-3--------|-5-------------|
E|-3--------|----------------|----------|---------------|

G|----------|----------------|----------|---------------|
D|---5-44-5-|----------------|---5-44-5-|---7-7/9-7-5-7-|
A|----------|-7-9-9/10-9-7-9-|-3--------|-5-------------|
E|-3--------|----------------|----------|---------------|

G|----------|----------------|----------|---------------|
D|---5-44-5-|----------------|---5-44-5-|---7-7/9-7-5-7-|
A|----------|-7-9-9/10-9-7-9-|-3--------|-5-------------|
E|-3--------|----------------|----------|---------------|


Outro:
G|----------|----------------|----------|---------------|
D|---5-44-5-|----------------|---5-44-5-|---7-7/9-7-5-7-|
A|----------|-7-9-9/10-9-7-9-|-3--------|-5-------------|
E|-3--------|----------------|----------|---------------|


Share "Silvertoes" by Parokya Ni Edgar


TOP 10 TABS

FRESH NEW TABS

ALL ARTISTS
artist wiki

mp3bear.com
TabSpace.com / contact us / privacy policy / tabspace toolbar
Copyright 2004 - 2016 TabSpace.com - All Rights Reserved.
song: silvertoes bass tabs by parokya ni edgar

0.007