:: Guitar & Bass Tabs Make Home Page
A B C D E F G H I J K L M N O P Q R S T U V W X Y Z #

  for    

On TABSPACE
Info About This Tab
Artist: Rapture
Tab Type: Guitar
Difficulty: novice
Rate This Tab!
Sister Savior - The Rapture
Fairly easy song, have lots of treble.
Not perfect, if I totally work out the middle bit I'll edit this.

Intro riff:

e|----13----11----10----10-|
B|----13----12----11----10-|
G|----10----13----12----10-|
D|----------13----12-------|
A|----------11----10-------|
E|-------------------------|

Main Riff: Just repeat as neccessary

e|-1010-10-1010-10-1010-10-1010-10-1010-10-1010-10-|
B|-1010-12-1010-12-1010-12-1010-12-1010-12-1010-12-|
G|-1010-12-1010-12-1010-12-1010-12-1010-12-1010-12-|
D|-------------------------------------------------|
A|-------------------------------------------------|
E|-------------------------------------------------|


Verse 1: (Can you feel it...)

e|-10-------10-------10-------10-------10-10-10-------10-------10-|
B|-12-------10-------12-------10-------10h12-12-------10-------12-|
G|-12-------10-------12-------10-------10h12-12-------10-------12-|
D|----------------------------------------------------------------|
A|----------------------------------------------------------------|
E|----------------------------------------------------------------|

Chorus: (heyyyeyeyey..)
Into main riff again.


Break before verse 2:

e|-10101010101010101010101010101010101010101010101010101010101010-|
B|-10101010101010101010101010101010101010101010101010101010101010-|
G|-10101010101010101010101010101010101010101010101010101010101010-|
D|----------------------------------------------------------------|
A|----------------------------------------------------------------|
E|----------------------------------------------------------------|





Verse 2: (Last night I had a dream...)

This is very hard to tab this bit, so I'm doing it very roughly. All the picking is done in
in the chord of Dm.

e|-10---10--10--10--10-------10--10--10-----------------------------|
B|-10-10--10------10-----10----10------10---------------------------|
G|-10----------------------10---------------------------------------|
D|-12---------12-------12----------12-------------------------------|
A|-12---------------------------------------------------------------|
E|-10---------------------------------------------------------------|

Thats NOT how you play it, but its the notes used so just pick about like that.




Verse 3: (one last late night)
Exact same as verse 1


Chorus:
Main riff again.


Outro
e|-10101010101010101010101010101010101010101010101010101010101010-|
B|-10101010101010101010101010101010101010101010101010101010101010-|
G|-10101010101010101010101010101010101010101010101010101010101010-|
D|----------------------------------------------------------------|
A|----------------------------------------------------------------|
E|----------------------------------------------------------------|


Share "Sister Savior" by Rapture


TOP 10 TABS

FRESH NEW TABS

ALL ARTISTS
artist wiki

mp3bear.com
song lyrics / contact us / privacy policy / tabspace toolbar
Copyright 2004 - 2014 TabSpace.com - All Rights Reserved.
song: sister savior guitar tabs by rapture

0.007