:: Guitar & Bass Tabs Make Home Page
A B C D E F G H I J K L M N O P Q R S T U V W X Y Z #

  for    

On TABSPACE
Info About This Tab
Artist: 88 Fingers Louie
Tab Type: Guitar
Rate This Tab!
-------------------------------------------------------------------------------
		   SMART ENOUGH TO RUN – 88 Fingers Louie
-------------------------------------------------------------------------------
Tabbed by: strungout777	
Email: manuel_ramones4life@gmx.at	


Intro:
e|---------------------------------------------------------------------------|
B|---------------------------------------------------------------------------|
G|---------------------9\7-121212---10--------------10\9-121212--------------|
D|--7~---7~---7---------------------10-101010101010--------------------------|
A|--7~---7~---7-777777-7\5-101010----8--8-8-8-8-8-8--8\7-101010--------------|
E|--5~---5~---5-555555-------------------------------------------------------|
                xxxxxx                  x x x x x x                          

e|---------------------------------------------------------------------------|
B|---------------------------------------------------------------------------|
G|------------9\7-121212---10--------------10\9-10\9-------------------------|
D|--7----------------------10-101010101010-----------------------------------|
A|--7-777777--7\5-101010----8--8-8-8-8-8-8--8\7--8\7-------------------------|
E|--5-555555-----------------------------------------------------------------|
      xxxxxx                   x x x x x x                                   

Verse1:
e|---------------------------------------------------------------------------|
B|---------------------------------------------------------------------------|
G|---------------9\7-121212---10--------------10\9-121212--------------------|
D|--10\7----------------------10-101010101010--------------------------------|
A|--10\7-777777--7\5-101010----8--8-8-8-8-8-8--8\7-101010--------------------|
E|---8\5-555555--------------------------------------------------------------|
         xxxxxx                   x x x x x x                                 

e|---------------------------------------------------------------------------|
B|---------------------------------------------------------------------------|
G|------------9\7-121212---10--------------10\9-777--------------------------|
D|--7----------------------10-101010101010-----------------------------------|
A|--7-777777--7\5-101010----8--8-8-8-8-8-8--8\7-555--------------------------|
E|--5-555555-----------------------------------------------------------------|
      xxxxxx                   x x x x x x                                

e|---------------------------------------------------------------------------|
B|---------------------------------------------------------------------------|
G|------------9\7-121212---10--------------10\9-121212-----------------------|
D|--7----------------------10-101010101010-----------------------------------|
A|--7-777777--7\5-101010----8--8-8-8-8-8-8--8\7-101010-----------------------|
E|--5-555555-----------------------------------------------------------------|
      xxxxxx                   x x x x x x                                

e|---------------------------------------------------------------------------|
B|---------------------------------------------------------------------------|
G|------------9\7-121212---10------------------------------------------------|
D|--7----------------------10-1010101010101010-------------------------------|
A|--7-777777--7\5-101010----8--8-8-8-8-8-8-8-8-------------------------------|
E|--5-555555-----------------------------------------------------------------|
      xxxxxx                   x x x x x x x x                                

Pre-Chorus:
e|---------------------------------------------------------------------------|
B|---------------------------------------------------------------------------|
G|---------------------------------------------------------------------------|
D|--10\9--7-777777--5-555555--3-333333-------10---------9--------------------|
A|--10\9--7-777777--5-555555--3-333333----10----10----9---9------------------|
E|---8\7--5-555555--3-333333--1-111111--8-----------7------------------------|

e|---------------------------------------------------------------------------|
B|---------------------------------------------------------------------------|
G|---------------------------------------------------------------------------|
D|--7-777777--5-555555--3-333333-------10-----9------------------------------|
A|--7-777777--5-555555--3-333333----10------9--------------------------------|
E|--5-555555--3-333333--1-111111--8-------7----------------------------------|

Chorus:
e|---------------------------------------------------------------------------|
B|---------------------------------------------------------------------------|
G|--10-101010101010--999--7-5------------------------------------------------|
D|--10-101010101010--999--7-5--7-777777-5-555555-333333--5-3-----------------|
A|---8--8-8-8-8-8-8--777--5-3--7-777777-5-555555-333333--5-3-----------------|
E|-----------------------------5-555555-3-333333-111111--3-1-----------------|

Verse2:
e|---------------------------------------------------------------------------|
B|---------------------------------------------------------------------------|
G|------------9\7-121212---10--------------10\9-121212-----------------------|
D|--7----------------------10-101010101010-----------------------------------|
A|--7-777777--7\5-101010----8--8-8-8-8-8-8--8\7-101010-----------------------|
E|--5-555555-----------------------------------------------------------------|
      xxxxxx                   x x x x x x                                

e|---------------------------------------------------------------------------|
B|---------------------------------------------------------------------------|
G|------------9\7-121212---10--------------10\9-7-5--------------------------|
D|--7----------------------10-101010101010-----------------------------------|
A|--7-777777--7\5-101010----8--8-8-8-8-8-8--8\7-5-3--------------------------|
E|--5-555555-----------------------------------------------------------------|
      xxxxxx                   x x x x x x                                

e|---------------------------------------------------------------------------|
B|---------------------------------------------------------------------------|
G|--------------9\7-121212---10--------------10\9-121212---------------------|
D|--5/7----------------------10-101010101010---------------------------------|
A|--5/7-777777--7\5-101010----8--8-8-8-8-8-8--8\7-101010---------------------|
E|--3/5-555555---------------------------------------------------------------|
        xxxxxx                   x x x x x x                                

e|---------------------------------------------------------------------------|
B|---------------------------------------------------------------------------|
G|------------9\7-121212---10------------------10----------------------------|
D|--7----------------------10-1010101010101010-10----------------------------|
A|--7-777777--7\5-101010----8--8-8-8-8-8-8-8-8--8----------------------------|
E|--5-555555-----------------------------------------------------------------|
      xxxxxx                   x x x x x x x x                                

Pre-Chorus:
e|---------------------------------------------------------------------------|
B|---------------------------------------------------------------------------|
G|---------------------------------------------------------------------------|
D|--7-777777--5-555555--3-333333-------10---------9--------------------------|
A|--7-777777--5-555555--3-333333----10----10----9---9------------------------|
E|--5-555555--3-333333--1-111111--8-----------7------------------------------|

e|---------------------------------------------------------------------------|
B|---------------------------------------------------------------------------|
G|---------------------------------------------------------------------------|
D|--7-777777--5-555555--3-333333-------10-----9------------------------------|
A|--7-777777--5-555555--3-333333----10------9--------------------------------|
E|--5-555555--3-333333--1-111111--8-------7----------------------------------|

Chorus:
e|---------------------------------------------------------------------------|
B|---------------------------------------------------------------------------|
G|--10-101010101010--999--7-5------------------------------------------------|
D|--10-101010101010--999--7-5--7-777777-5-555555-333333--5-3-----------------|
A|---8--8-8-8-8-8-8--777--5-3--7-777777-5-555555-333333--5-3-----------------|
E|-----------------------------5-555555-3-333333-111111--3-1-----------------|

Solo:
e|---------------------------------------------------------------------------|
B|---------------------------------------------------------------------------|
G|--7b9~--9p7-5----7p5h7-----------------------------------------------------|
D|--------------7~-------7-5h7----7~------2---2--5-2-5-2-5-------------------|
A|-----------------------------7--7~--3h5---5--------------------------------|
E|---------------------------------------------------------------------------|

e|----------------------------0-0-0-0-0-0~-----------------------------------|
B|---------------------------101010101010~-----------------------------------|
G|--55555-77777-7b9-5----------------------7b9-7-5-----5---------------------|
D|--------------------7-5-7------------------------5-7---7-------------------|
A|---------------------------------------------------------7-5~---7h5--------|
E|--------------------------------------------------------------8-----8-7~---|

Bridge:
e|---------------------------------------------------------------------------|
B|---------------------------------------------------------------------------|
G|---------------------------------------------------------------------------|
D|----------------------------------------------------333333-----------------|
A|--777777777777---333333333333---77777777777---333333333333-----------------|
E|--555555555555---111111111111---55555555555---111111111111-----------------|
    xxxxxxxxxxxx   xxxxxxxxxxxx   xxxxxxxxxxx   xxxxxx                  

Pre-Chorus:
e|---------------------------------------------------------------------------|
B|---------------------------------------------------------------------------|
G|---------------------------------------------------------------------------|
D|--7-777777--5-555555--3-333333-------10---------9--------------------------|
A|--7-777777--5-555555--3-333333----10----10----9---9------------------------|
E|--5-555555--3-333333--1-111111--8-----------7------------------------------|

e|---------------------------------------------------------------------------|
B|---------------------------------------------------------------------------|
G|---------------------------------------------------------------------------|
D|--7-777777--5-555555--3-333333-------10-----9------------------------------|
A|--7-777777--5-555555--3-333333----10------9--------------------------------|
E|--5-555555--3-333333--1-111111--8-------7----------------------------------|

Chorus:
e|---------------------------------------------------------------------------|
B|---------------------------------------------------------------------------|
G|--10-101010101010--999--7-5------------------------------------------------|
D|--10-101010101010--999--7-5--7-777777-5-555555-333333------10---------9----|
A|---8--8-8-8-8-8-8--777--5-3--7-777777-5-555555-333333---10----10----9---9--|
E|-----------------------------5-555555-3-333333-111111-8-----------7--------|
                                                        x  x  x  x  x x x x

Pre-Chorus:
e|---------------------------------------------------------------------------|
B|---------------------------------------------------------------------------|
G|---------------------------------------------------------------------------|
D|--7-777777--5-555555--3-333333-------10---------9--------------------------|
A|--7-777777--5-555555--3-333333----10----10----9---9------------------------|
E|--5-555555--3-333333--1-111111--8-----------7------------------------------|

e|---------------------------------------------------------------------------|
B|---------------------------------------------------------------------------|
G|---------------------------------------------------------------------------|
D|--7-777777--5-555555--3-333333-------10-----9------------------------------|
A|--7-777777--5-555555--3-333333----10------9--------------------------------|
E|--5-555555--3-333333--1-111111--8-------7----------------------------------|

Outro:
e|---------------------------------------------------------------------------|
B|---------------------------------------------------------------------------|
G|--10-101010101010--9-999999--10-101010101010--9-999999---------------------|
D|--10-101010101010--9-999999--10-101010101010--9-999999---------------------|
A|---8--8-8-8-8-8-8--7-777777---8--8-8-8-8-8-8--7-777777---------------------|
E|---------------------------------------------------------------------------|


e|---------------------------------------------------------------------------|
B|---------------------------------------------------------------------------|
G|--10-101010101010--12-12121212--7-5----------------------------------------|
D|--10-101010101010--12-12121212--7-5--7--------7----------------------------|
A|---8--8-8-8-8-8-8--10-10101010--5-3--7-777777-7----------------------------|
E|-------------------------------------5-555555-5----------------------------|
                                         xxxxxx 


| /  slide up
| \  slide down
| h  hammer-on
| p  pull-off
| ~  vibrato
| +  harmonic
| x  Mute note
| b  bend up to...
===============================================================================


Share "Smart Enough To Run" by 88 Fingers Louie


TOP 10 TABS

FRESH NEW TABS

ALL ARTISTS
artist wiki

mp3bear.com
song lyrics / contact us / privacy policy / tabspace toolbar
Copyright 2004 - 2014 TabSpace.com - All Rights Reserved.
song: smart enough to run guitar tabs by 88 fingers louie

0.027