:: Guitar & Bass Tabs Make Home Page
A B C D E F G H I J K L M N O P Q R S T U V W X Y Z #

  for    

On TABSPACE
Info About This Tab
Artist: Carlos Santana
Tab Type: Bass
Rate This Tab!
Song:   Smooth	
Artist: Santana	
Tuning: G D A E
From:   David Oleniacz basstabs@maxwellswitch.com [www.maxwellswitch.com]



intro
G:|-----------------|-----------------|-----------------|-----------------|
D:|-7---------------|-----------------|-7---------------|-----------------|
A:|-----------8---7-|-------------7-7-|-----------8---7-|-----------------|
E:|-----------------|-------7---------|-----------------|---------0---4---|
    1 & 2 & 3 & 4 &   1 & 2 & 3 & 4 &   1 & 2 & 3 & 4 &   1 & 2 & 3 & 4 &

verse
G:|-----------------|-------9---------|-----------------|-------9---------|
D:|-7---------------|-----------------|-7---------------|-----------------|
A:|-----------8---7-|---------------7-|-----------8---7-|-----------------|
E:|-----------------|-----------------|-----------------|-----------------|
    1 & 2 & 3 & 4 &   1 & 2 & 3 & 4 &   1 & 2 & 3 & 4 &   1 & 2 & 3 & 4 &

                                                         _________________
                                                        |1.
G:|-7---------5---4-|-----------------|-----------------|-----------------|
D:|-----------------|-------6---------|-7-----5---------|-----------------|
A:|-----------------|---------------7-|-----------8---7-|-7---------------|
E:|-----------------|-----------------|-----------------|-------0-0---0---|
    1 & 2 & 3 & 4 &   1 & 2 & 3 & 4 &   1 & 2 & 3 & 4 &   1 & 2 & 3 & 4 &

   _________________
  |2.                
G:|-----------------|
D:|-----------------|
A:|-----------------|
E:|-------0-0-0-0-0-|
    1 & 2 & 3 & 4 &  

chorus
G:|-----------------|-----------------|-----------------|-----------------|
D:|-7---------------|-----------------|-7---------------|-----------------|
A:|-------0-0-8---7-|-7-----------7-7-|-------0-0-8---7-|-7-----------7-7-|
E:|-----------------|-------7-7-------|-----------------|-------7-7-------|
    1 & 2 & 3 & 4 &   1 & 2 & 3 & 4 &   1 & 2 & 3 & 4 &   1 & 2 & 3 & 4 &   

G:|-----------------|-----------------|-----------------|-----------------|
D:|-7---------------|-----------------|-----------------|-----------------|
A:|-------0-0-8---7-|-7-----------7-7-|-5---5-0-3---3-2-|-2---0-----------|
E:|-----------------|-------7-7-------|-----------------|-------3-----3---|
    1 & 2 & 3 & 4 &   1 & 2 & 3 & 4 &   1 & 2 & 3 & 4 &   1 & 2 & 3 & 4 &


G:|-----------------|-----------------|
D:|-----------------|-----------------|
A:|-----------5-6-7-|-----------------|
E:|-2-2-2-2-7-------|---0-0-0-0-0-0-0-|
    1 & 2 & 3 & 4 &   1 & 2 & 3 & 4 &  



chorus B
G:|-----------------|-----------------|-----------------|-----------------|
D:|-----------3-----|-----------------|-----------3-----|-----------------|
A:|-0-----0-------5/|-7-7-5-7---------|-0-0---0-------56|-7-7-5-6-7-------|
E:|-----3-----------|---------0-0-3-0-|-----3-----------|-----------0-3-0-|
    1 & 2 & 3 & 4 &   1 & 2 & 3 & 4 &   1 & 2 & 3 & 4 &   1 & 2 & 3 & 4 &


G:|-----------------|-----------------|-----------------|-----------------|
D:|------------3----|-----------------|-----------------|-----------------|
A:|-0-0---0-------56|-7-7-5-7-----7---|-5---------5---7/|-----------------|
E:|-----3-----------|---------0-------|-----------------|-----------------|
    1 & 2 & 3 & 4 &   1 & 2 & 3 & 4 &   1 & 2 & 3 & 4 &   1 & 2 & 3 & 4 &



G:|-----------------|-----------------|-----------------|-----------------|
D:|-7-----5---------|-----------------|-7---7-5---------|-----------------|
A:|-----------8---7-|---------5-6-7-5-|-----------8---7-|-----------------|
E:|-----------------|-------7---------|-----------------|---0-0-0-3---4---|
    1 & 2 & 3 & 4 &   1 & 2 & 3 & 4 &   1 & 2 & 3 & 4 &   1 & 2 & 3 & 4 &

verse                                      
G:|-----------------|-------9---------|-----------------|-----------9-----|
D:|-----------------|-------------9---|-7---------------|---------------9-|
A:|-0---------8---7-|---------------7-|-----------8---7-|-7---------------|
E:|-----------------|-----------------|-----------------|-----------------|
    1 & 2 & 3 & 4 &   1 & 2 & 3 & 4 &   1 & 2 & 3 & 4 &   1 & 2 & 3 & 4 &

G:|-7---------5---4-|-----------------|-----------------|---9-7-----------|
D:|---------7-------|-------6---------|-7---7-5---------|-------9---------|
A:|-----------------|-------------7---|-----------8---7-|---------7-------|
E:|-----------------|-----------------|-----------------|-------------7\--|
    1 & 2 & 3 & 4 &   1 & 2 & 3 & 4 &   1 & 2 & 3 & 4 &   1 & 2 & 3 & 4 &


G:|-----------------|-----------------|-----------------|-------9-9-------|
D:|-----------------|-------9-9-------|-7---------------|---------------9-|
A:|-0---------8---7-|-------------7-10|-----------8---7-|-----------------|
E:|-----------------|-----------------|-----------------|-----------------|
    1 & 2 & 3 & 4 &   1 & 2 & 3 & 4 &   1 & 2 & 3 & 4 &   1 & 2 & 3 & 4 &

                                                              to chorus A&B
G:|-7---9-7-5-----4-|---------------4-|-----------------|-----------------|
D:|-----------------|-------6-6---6---|-7---7-5---------|-----------------|
A:|-----------------|-----------7-----|---7-------8---7-|-----------------|
E:|-----------------|-----------------|-----------------|-0-0-2-2-3---4---|
    1 & 2 & 3 & 4 &   1 & 2 & 3 & 4 &   1 & 2 & 3 & 4 &   1 & 2 & 3 & 4 &

solo
G:|-----------------|-----------------|-----------------|-----------------|
D:|-----7-5---------|-----------------|-7---7-5---------|---------------5-|
A:|-0---------8---7-|-------------7-7-|---7-------8---7-|-------5---6-7---|
E:|-----------------|-------7-7-------|-----------------|---7-7-----------|
    1 & 2 & 3 & 4 &   1 & 2 & 3 & 4 &   1 & 2 & 3 & 4 &   1 & 2 & 3 & 4 &

                                                                to chorus B
G:|-----------------|-----------------|-----------------|-----------------|
D:|-7---7-5---------|-----------------|-----------------|-----------------|
A:|---7-------8---7-|-------------12\-|-5---5---3---3-2-|-2---0-----------|
E:|-----------------|-------7-7-------|---5-------------|-------3-----3---|
    1 & 2 & 3 & 4 &   1 & 2 & 3 & 4 &   1 & 2 & 3 & 4 &   1 & 2 & 3 & 4 &

end                                                    4x 
G:|-----------------|-----------------|-----------------|
D:|-------2---------|*----------3---2-|----------------*|
A:|-----------------|*0---------------|---------5-6-7--*|
E:|---------0-0-3-4-|-----------------|-------7-------0-|
    1 & 2 & 3 & 4 &   1 & 2 & 3 & 4 &   1 & 2 & 3 & 4 &  


G:|-----------------|-----------------|-----------------|-----------------|
D:|-----------------|-----------------|-----------------|-----------------|
A:|-0-0-0-----------|-------2-5---3-2-|-0-0-0-----------|-----5-6-7-------|
E:|-------3---1---0-|-----------------|-------3---1---0-|-----------0-3-4-|
    1 & 2 & 3 & 4 &   1 & 2 & 3 & 4 &   1 & 2 & 3 & 4 &   1 & 2 & 3 & 4 &


G:|-----------------|-----------------|-----------------|-----------------|
D:|-----------------|-----------------|-----------------|-----------------|
A:|-0-0-0-----------|-----7-567-------|-0-0-0-----------|-----------------|
E:|-------3---1---0-|-0---------0-3-4-|-------3---1---0-|-------0-3---4-4-|
    1 & 2 & 3 & 4 &   1 & 2 & 3 & 4 &   1 & 2 & 3 & 4 &   1 & 2 & 3 & 4 &

                                      
G:|-----------------|-----------------|-----------------|-----------------|
D:|-----------------|-----------------|-----------------|-----------------|
A:|-0-0-0-----------|-------567-------|-0-0-0-----------|---------5-6-7---|
E:|-------3---1---0-|-----------0-3-4-|-------3---1---0-|---0-4-0-------0-|
    1 & 2 & 3 & 4 &   1 & 2 & 3 & 4 &   1 & 2 & 3 & 4 &   1 & 2 & 3 & 4 &




Share "Smooth" by Carlos Santana


TOP 10 TABS

FRESH NEW TABS

ALL ARTISTS
artist wiki

mp3bear.com
song lyrics / contact us / privacy policy / tabspace toolbar
Copyright 2004 - 2014 TabSpace.com - All Rights Reserved.
song: smooth bass tabs by carlos santana

0.018