:: Guitar & Bass Tabs Make Home Page
A B C D E F G H I J K L M N O P Q R S T U V W X Y Z #

  for    

On TABSPACE
Info About This Tab
Artist: Misc Television
Tab Type: Guitar
Difficulty: novice
Rate This Tab!
This is pretty close, I've seen many people submit stuff no where close and I don't see 
they feel that their tabs even sound evidentally close to the song. So here it goes.
           By the way: People trying to learn by looking at the video may be confused 
he is playing a right-handed guitar upside-down so the higher notes are played on the top 
of bottom.

E:------------------------|-----------------------|
B:---3-3---3-3------------|---3-3---3-3-1~~-1~-1~~|
G:---0-0---0-0---0-0-x-0-0|---0-0---0-0-0~~-0~-0~~|
D:---0-0---0-0---2-2-0~0-0|---0-0---0-0-2~~-2~-2~~|
A:-x-----x-----x-2-2---2-2|-x-----x-----3~~-3~-3~~|
E: 3~~~~-2~~~~-0~~~~---x-x|-3~~~~-2~~~~-x---x--x--|

Happy Peanuts Soar, Over  |And the Waterfalls of  |
Chocolate Covered Mountain|Caaaaaaaaremeeeeeeeel. |
tops                      |                       |

E:------------------------|-----------------------|
B:---3-3---3-3------------|---------------3~------|
G:---0-0---0-0---0-0-0----|---------------0~------|
D:---0-0---0-0---2-2-0----|---------------0~------|
A:-x-----x-----x-2-2-2----|---------------x~------|
E:-3~~~~-2~~~~-0~~~~------|---------------3~------|

Prancing Nugget in the    |  "The World"
Meadows Sing a Song of    |
Satisfaction...To The Woooooorld...


Share "Snickers Commercial" by Misc Television


TOP 10 TABS

FRESH NEW TABS

ALL ARTISTS
artist wiki

mp3bear.com
song lyrics / contact us / privacy policy / tabspace toolbar
Copyright 2004 - 2014 TabSpace.com - All Rights Reserved.
song: snickers commercial guitar tabs by misc television

0.008