:: Guitar & Bass Tabs Make Home Page
A B C D E F G H I J K L M N O P Q R S T U V W X Y Z #

  for    

On TABSPACE
Info About This Tab
Artist: Evanescence
Tab Type: Guitar
Rate This Tab!
Artist: Evanescence
Song: Snow White Queen
Album: The Open Door (2006)
Written/Composed By: Amy Lee, Terry Balsamo

/  slide up
\  slide down
() ghost note
x  palm mute / pick rake


Intro (0:00) - Electronic


Verse (0:06)  No guitar


Pre-Chorus (0:36)
|---------------|--------------------|-----------|------------------|
|-----------5---|-5/6----6-(6)---6/8-|-(8)-------|-(8)---6-(6)-5----|
|-5-------5---5-|------5-------5-----|-----------|----------------5-|
|---------------|--------------------|-----------|------------------|
|---------------|--------------------|-----------|------------------|
|---------------|--------------------|-----------|------------------|

Pre-chorus Cont'd
|---------------|------------------|-----------|---------------|
|-----------5---|-5/6----6-----6---|-6/8-8-8-8-|-8/10-10-10-10-|
|---------5---5-|------5---5-5---5-|-----------|---------------|
|-7-------------|------------------|-----------|---------------|
|---------------|------------------|-----------|---------------|
|---------------|------------------|-----------|---------------|

Pre-chorus Cont'd
|--------12-----12----|-12/13-13------13/15-|----12------12----|
|---------------------|---------------------|------------------|
|-14---------14----14-|------------14-------|-14------14----14-|
|---------------------|---------------------|------------------|
|---------------------|---------------------|------------------|
|---------------------|---------------------|------------------|
|
|---------------------|---------------------|------------------|
|---------------------|---------------------|------------------|
|---------------------|---------------------|------------------|
|---------------------|---------------------|------------------|
|---------------------|---------------------|------------------|
|---------------------|---------------------|--------------/7--|

Prechorus Cont'd
|-12/13----13----13/15-|
|----------------------|
|-------14----14-------|
|----------------------|
|----------------------|
|----------------------|
|
|----------------------|
|----------------------|
|----------------------|
|-------------------x--|
|-6-6-6--5--3-----x--|
|----------------------|


Chorus (0:57)
|---------------|-----------------------|---------------|-----------------------|
|---------------|-----------------------|---------------|-----------------------|
|---------------|-----------------------|---------------|-----------------------|
|-7-7-7-7-7-----|-10-10-10-10-10--------|-7-7-7-7-7-----|-10-10-10-10-10--------|
|-7-7-7-7-7-----|--8--8--8--8--8--------|-7-7-7-7-7-----|--8--8--8--8--8--------|
|-7-7-7-7-7-----|-----------------------|-7-7-7-7-7-----|-----------------------|
|
|---------------|-----------------------|---------------|-----------------------|
|---------------|-----------------------|---------------|-----------------------|
|---------------|-----------------------|---------------|-----------------------|
|---------------|-----------------------|---------------|-----------------------|
|-7-7---7-7-----|--8--8--8--8---xx-8/10-|-7-7---7-7-----|--8--8--8--8---xx-8\7--|
|-7-7---7-7--/7-|---------------xx------|-7-7---7-7--/7-|---------------xx------|

Chorus Cont'd
|---------------|-----------------------|---------------|-----------------|
|---------------|-----------------------|---------------|-----------------|
|---------------|-----------------------|---------------|-----------------|
|-7-7-7-7-7-----|-10-10-10-10-10--------|-7-7-7-7-7-----|--8-8-8-7-5------|
|-7-7-7-7-7-----|--8--8--8--8--8--------|-7-7-7-7-7-----|--6-6-6-5-3------|
|-7-7-7-7-7-----|-----------------------|-7-7-7-7-7-----|-----------------|
|
|---------------|-----------------------|---------------|-----------------|
|---------------|-----------------------|---------------|-----------------|
|---------------|-----------------------|---------------|-----------------|
|---------------|-----------------------|---------------|-----------------|
|-7-7---7-7-----|--8--8--8--8---xx-8/10-|-7-7---7-7-----|--6-6-6\5-3-xx---|
|-7-7---7-7--/7-|---------------xx------|-7-7---7-7--/7-|------------xx---|

|---------------|-------------------------------------------------|
|---------------|-------------------------------------------------|
|---------------|-------------------------------------------------|
|-7-------------|-(7)---------------------------------------------|
|-7-------------|-(7)---------------------------------------------|
|-7-------------|-(7)---------------------------------------------|
|
|---------------|-------------------------------------------------|
|---------------|-------------------------------------------------|
|---------------|-------------------------------------------------|
|---------------|-------------------------------------------------|
|---------------|-------------------------------------------------|
|-7-------------|-(7)---------------------------------------------|


Verse (1:30)  x4
|-12----12---------|-13----13---------|-15----15---------|-13----13------(13)-----|
|----14---------14-|----14---------14-|----14---------14-|----14-------------14---|
|------------------|------------------|------------------|------------------------|
|------------------|------------------|------------------|------------------------|
|------------------|------------------|------------------|------------------------|
|------------------|------------------|------------------|------------------------|


Pre-Chorus (1:59)
|-----------------|-------------|---------------|---------------|---------------|
|-----------------|-------------|---------------|---------------|---------------|
|---------0-------|-------------|-----0---2---4-|-(4)---5-4-0---|---------0-----|
|-----3-----3---2-|-(2)-3-(3)---|---2---2---2---|---------------|-----3-----3-2-|
|---3-------------|-------------|-0-------------|---------------|---3---3-------|
|-3-----3---------|-------------|---------------|---------------|-3-------------|

Pre-Chorus Cont'd
|-------------|---------------|-----------|------------|------------------------|
|-------------|---------------|-----------|------------|------------------------|
|-------------|-----0---2---4-|-(4)-7-7-7-|------------|------------------------|
|-(2)-3-(3)---|---2---2---2---|-----------|------------|------------------------|
|-------------|-0-------------|-----------|------------|------------------------|
|-------------|---------------|-----------|------------|------------------------|


Chorus (2:18)
|---------------|-----------------------|---------------|-----------------------|
|---------------|-----------------------|---------------|-----------------------|
|---------------|-----------------------|---------------|-----------------------|
|-7-7-7-7-7-----|-10-10-10-10-10--------|-7-7-7-7-7-----|-10-10-10-10-10--------|
|-7-7-7-7-7-----|--8--8--8--8--8--------|-7-7-7-7-7-----|--8--8--8--8--8--------|
|-7-7-7-7-7-----|-----------------------|-7-7-7-7-7-----|-----------------------|
|
|---------------|-----------------------|---------------|-----------------------|
|---------------|-----------------------|---------------|-----------------------|
|---------------|-----------------------|---------------|-----------------------|
|---------------|-----------------------|---------------|-----------------------|
|-7-7---7-7-----|--8--8--8--8---xx-8/10-|-7-7---7-7-----|--8--8--8--8---xx-8\7--|
|-7-7---7-7--/7-|---------------xx------|-7-7---7-7--/7-|---------------xx------|

Chorus Cont'd
|---------------|-----------------------|---------------|-----------------------|
|---------------|-----------------------|---------------|-----------------------|
|---------------|-----------------------|---------------|-----------------------|
|-7-7-7-7-7-----|-10-10-10-10-10--------|-7-7-7-7-7-----|--8-8-8-7----5---------|
|-7-7-7-7-7-----|--8--8--8--8--8--------|-7-7-7-7-7-----|--6-6-6-5----3---------|
|-7-7-7-7-7-----|-----------------------|-7-7-7-7-7-----|-----------------------|
|
|---------------|-----------------------|---------------|-----------------------|
|---------------|-----------------------|---------------|-----------------------|
|---------------|-----------------------|---------------|-----------------------|
|---------------|-----------------------|---------------|-----------------------|
|-7-7---7-7-----|--8--8--8--8---xx-8/10-|-7-7---7-7-----|--6-6-6\5-------3-xx---|
|-7-7---7-7--/7-|---------------xx------|-7-7---7-7--/7-|------------------xx---|


Bridge (2:46)
|-----------------|-----------------|-----------------|-----------------|
|-----------------|-----------------|-----------------|-----------------|
|-----------------|-----------------|-----------------|-----------------|
|-2-2-2-2-2-2-2-2-|-3-3-3-3-3-3-3-3-|-5-5-5-5-5-5-5-5-|-7-7-7-7-7-7-7-7-|
|-2-2-2-2-2-2-2-2-|-3-3-3-3-3-3-3-3-|-5-5-5-5-5-5-5-5-|-7-7-7-7-7-7-7-7-|
|-2-2-2-2-2-2-2-2-|-3-3-3-3-3-3-3-3-|-5-5-5-5-5-5-5-5-|-7-7-7-7-7-7-7-7-|
|
|-----------------|-----------------|-----------------|-----------------|
|-----------------|-----------------|-----------------|-----------------|
|-----------------|-----------------|-----------------|-----------------|
|-----------------|-----------------|-----------------|-----------------|
|-7-7-5-7/8-------|-8-8-7-8/10------|-10-10-8-10/12---|-12-14-15--------|
|-----------------|-----------------|-----------------|-----------------|

Cont'd
|-----------------|-----------------|-----------------|-----------------|
|-----------------|-----------------|-----------------|-----------------|
|-----------------|-----------------|-----------------|-----------------|
|-3-3-3-3-3-3-3-3-|-2-2-2-2-2-2-2-2-|-7-7-7-7-7-7-7-7-|-7-7-7-7-7-7-7-7-|
|-3-3-3-3-3-3-3-3-|-2-2-2-2-2-2-2-2-|-7-7-7-7-7-7-7-7-|-7-7-7-7-7-7-7-7-|
|-3-3-3-3-3-3-3-3-|-2-2-2-2-2-2-2-2-|-7-7-7-7-7-7-7-7-|-7-7-7-7-7-7-7-7-|
|
|-----------------|-----------------|-----------------|-----------------|
|-----------------|-----------------|-----------------|-----------------|
|-----------------|-----------------|-----------------|-----------------|
|-----------------|-----------------|-----------------|-----------------|
|-(15)-14-15-14---|-(14)----14-12---|-12--------------|-(12)-10/12/10/7-|
|-----------------|-----------------|-----------------|-----------------|

Cont'd
|-----------------|-----------------|-----------------|-----------------|
|-----------------|-----------------|-----------------|-----------------|
|-----------------|-----------------|-----------------|-----------------|
|-3-3-3-3-3-3-3-3-|-7-7-7-7-7-7-7-7-|-2-2-2-2-2-2-2-2-|-2-2-2-2-2-2-2-2-|
|-3-3-3-3-3-3-3-3-|-5-5-5-5-5-5-5-5-|-2-2-2-2-2-2-2-2-|-2-2-2-2-2-2-2-2-|
|-3-3-3-3-3-3-3-3-|-----------------|-2-2-2-2-2-2-2-2-|-2-2-2-2-2-2-2-2-|
|
|-----------------|-----------------|-----------------|------------------|
|-----------------|-----------------|-----------------|------------------|
|-----------------|-----------------|-----------------|------------------|
|-----------------|-----------------|-----------------|---9---9-(9)-(9)\-|
|-8-8-8-8/5-------|-5-5---5---------|-7---7-----7-----|-----7------------|
|-----------------|-----------------|-----------------|------------------|


Post-Bridge
|-----------------|-----------------|-----------------|------------------|
|-----------------|-----------------|-----------------|------------------|
|-----------------|-----------------|-----------------|------------------|
|-----------------|-----------------|-----------------|------------------|
|-7-7---------7-7-|-----------------|-7-7---------7-7-|------------------|
|-7-7---------7-7-|-----------------|-7-7---------7-7-|------------------|


Chorus (3:23)
|---------------|-----------------------|---------------|-------------------------|
|---------------|-----------------------|---------------|-------------------------|
|---------------|-----------------------|---------------|-------------------------|
|-7-7-7-7-7-----|-10-10-10-10-10--------|-7-7-7-7-7-----|--8-8-8-7----5-----------|
|-7-7-7-7-7-----|--8--8--8--8--8--------|-7-7-7-7-7-----|--6-6-6-5----3-----------|
|-7-7-7-7-7-----|-----------------------|-7-7-7-7-7-----|-------------------------|
|
|---------------|-----------------------|---------------|-------------------------|
|---------------|-----------------------|---------------|-------------------------|
|---------------|-----------------------|---------------|-------------------------|
|---------------|-----------------------|---------------|-------------------------|
|-7-7---7-7-----|--8--8--8--8---xx-8/10-|-7-7---7-7-----|----6-6-6\5-------3-xx---|
|-7-7---7-7--/7-|---------------xx------|-7-7---7-7--/7-|--------------------xx---|


|------------------|------------------|------------------|------------------|
|------------------|------------------|------------------|------------------|
|------------------|------------------|------------------|------------------|
|------------------|------------------|------------------|------------------|
|-3-3---3-3--------|-3-3---3-3--------|-7-7---7-7--------|-7-7---7-7--------|
|-3-3---3-3--------|-3-3---3-3--------|-7-7---7-7--------|-7-7---7-7--------|
|
|------------------|------------------|------------------|------------------|
|------------------|------------------|------------------|------------------|
|------------------|------------------|------------------|------------------|
|------------------|------------------|------------------|------------------|
|-3-------------/6-|-(6)-6-6-5--3---3-|-3-------------/6-|-(6)-6-6-5--3---3-|
|---7---7-7--------|------------------|---7---7-7--------|------------------|

|------------------|------------------|--------|---------|---------|--------------|
|------------------|------------------|--------|---------|---------|--------------|
|------------------|------------------|--------|---------|---------|--------------|
|------------------|------------------|-7------|-(7)-----|-(7)-----|-(7)----------|
|-3-3---3-3--------|-3-3---3-3--------|-7------|-(7)-----|-(7)-----|-(7)----------|
|-3-3---3-3--------|-3-3---3-3--------|-7------|-(7)-----|-(7)-----|-(7)----------|
|
|------------------|------------------|--------|---------|---------|--------------|
|------------------|------------------|--------|---------|---------|--------------|
|------------------|------------------|--------|---------|---------|--------------|
|------------------|------------------|--------|---------|---------|--------------|
|-3-------------/6-|-(6)-6-6-5--3---3-|--------|---------|---------|--------------|
|---7---7-7--------|------------------|-7------|-(7)-----|-(7)-----|-(7)----------|

Great song, by an amazing band. enjoy! any questions, comments or corrections, email me 
msg me. thanks to Mike Carter for tabbing this for me back in September.


Share "Snow White Queen" by Evanescence


TOP 10 TABS

FRESH NEW TABS

ALL ARTISTS
artist wiki

mp3bear.com
song lyrics / contact us / privacy policy / tabspace toolbar
Copyright 2004 - 2014 TabSpace.com - All Rights Reserved.
song: snow white queen guitar tabs by evanescence

0.009