:: Guitar & Bass Tabs Make Home Page
A B C D E F G H I J K L M N O P Q R S T U V W X Y Z #

  for    

On TABSPACE
Info About This Tab
Artist: Orion The Hunter
Tab Type: Bass
Difficulty: intermediate
Rate This Tab!
-------------------------------------------------------------------------------
			     SO YOU RAN - Orion The Hunter
-------------------------------------------------------------------------------
Tabbed by: Isaias Garcia (TexasFury)

Tuning: Standard





     H        E  S S E  S S    E  E  E  E  E  E  E  E     E  E  E  E  E  E  E  E   
G||-------------------------|--------------------------|--------------------------|
D||-------------------------|--------------------------|--------------------------|
A||--------------5-5-5--5-5-|--------------------------|--------------------------|
E||-------------------------|--1--1--1--1--1--1--1--1--|--1--1--1--1--1--3--3--5--|


                                            P                                    
  E  E  E  E  E  E  E  E     E  E  E  E  E  E  E  E     E  E  E  E  E  E  E  E   
--------------------------|-----------------7--------|--------------------------|
--------------------------|--------------------------|--------------------------|
--5--5--5--5--5--5--5--5--|--5--5--5--5--5-----5-----|--------------------------|
--------------------------|-----------------------5--|--3--3--3--3--3--3--3--3--|


  E  E  E  E  E  E  E  E     E  E  E  E  E  E  E  E     E  E  E  E  E  E  E  E   
--------------------------|--------------------------|--------------------------|
--------------------------|--------------------------|--------------------------|
--------------------------|--5--5--5--5--5--5--5--5--|--5--5--5--5--5--3--3--3--|
--3--3--3--3--3--3--3--5--|--------------------------|--------------------------|


  E  E  E  E  E  E  E  E     E  E  E  E  E  E  E  E     E  E  E  E  E  E  E  E   
--------------------------|--------------------------|--------------------------|
--------------------------|--------------------------|--------------------------|
--------------------------|--------------------------|--5--5--5--5--5--5--5--5--|
--1--1--1--1--1--1--1--1--|--1--1--1--1--1--1--3--5--|--------------------------|


                 ^                                                               
  E  E  E  E  E  E  E  E     E  E  E  E  E  E  E  E     E  E  E  E  E  E  E  E   
-----------------7--------|--------------------------|--------------------------|
--------------------------|--------------------------|--------------------------|
--5--5--5--5--5-----5-----|--------------------------|--------------------------|
-----------------------5--|--3--3--3--3--3--3--3--3--|--3--3--3--3--3--3--3--5--|


  E  E  E  E  E  E  E  E     E  E  E  E  E  E  E  E     E  E  E  E  E  E  E  E   
--------------------------|--------------------------|--------------------------|
--------------------------|--------------------------|--------------------------|
--5--5--5--5--5--5--5--5--|--5--5--5--5--5--3--3--3--|--------------------------|
--------------------------|--------------------------|--1--1--1--1--1--1--1--1--|


                                                                             ^   
  E  E  E  E  E  E  E  E     E  E  E  E  E  E  E  E     E  E  E  E  E  E  E  E   
--------------------------|--------------------------|-----------------------7--|
--------------------------|--------------------------|--------------------------|
--------------------------|--5--5--5--5--5--5--5--5--|--5--5--5--5--5--5--5-----|
--1--1--1--1--1--1--3--5--|--------------------------|--------------------------|


  E  E  E  E  E  E  E  E     E  E  E  E  E  E  E  E     E  E  E  E  E  E  E  E   
--------------------------|--------------------------|--------------------------|
--------------------------|--------------------------|--------------------------|
--------------------------|--------------------------|--5--5--5--5--5--5--5--5--|
--3--3--3--3--3--3--3--3--|--3--3--3--3--3--3--3--5--|--------------------------|


  E  E  E    E  E  E  E  E     H        E  E  Q    Q.     E     E  E  E  E  E  E  E  E   
----------------------------|--------------------------------|--------------------------|
----------------------------|--------------------------------|--------------------------|
--5--5--5--3g5--L--5--3-----|----------------------3------5--|--L--5--5--5--5--5--5--5--|
-------------------------5--|--1--------L--3--5--------------|--------------------------|


  E  E  E  E  E  E  E  E     Q    Q    E  E  Q    Q.     E     E  E  E  E  E  E  E  E   
--------------2--2--------|---------------------------------|--------------------------|
--------2--3--------3--2--|-------3----L--------------------|--------------------------|
--5--5--------------------|-----------------------3------5--|--L--5--5--5--5--5--5--5--|
--------------------------|--1------------3--5--------------|--------------------------|


  E  E  E  E  E  E  Q       E  E  E  E  E  E  Q       W                   W                 
-------------------------|-------------------------|-------------------|-------------------|
-------------------------|-------------------------|-------------------|-------------------|
-----------------3-------|-----5-----------7-------|--5----------------|--L----------------|
--3--6--3--5--L-----5----|--6-----6--8--L-----8----|-------------------|-------------------|


  E  E  E  E  E  E  E  E     E  E  E  E  E  E  E  E     E  E  E  E  E  E  E  E   
--------------------------|--------------------------|--------------------------|
--------------------------|--------------------------|--------------------------|
--------------------------|--------------------------|--5--5--5--5--5--5--5--5--|
--1--1--1--1--1--1--1--1--|--1--1--1--1--1--1--3--5--|--------------------------|


                 ^                                                               
  E  E  E  E  E  E  E  E     E  E  E  E  E  E  E  E     E  E  E  E  E  E  E  E   
-----------------7--------|--------------------------|--------------------------|
--------------------------|--------------------------|--------------------------|
--5--5--5--5--5-----5-----|--------------------------|--------------------------|
-----------------------5--|--3--3--3--3--3--3--3--3--|--3--3--3--3--3--3--3--5--|


  E  E  E  E  E  E  E  E     E  E  E  E  E  E  E  E     E  E  E  E  E  E  E  E   
--------------------------|--------------------------|--------------------------|
--------------------------|--------------------------|--------------------------|
--5--5--5--5--5--5--5--5--|--5--5--5--5--5--3--3--3--|--------------------------|
--------------------------|--------------------------|--1--1--1--1--1--1--1--1--|


                                                                       ^         
  E  E  E  E  E  E  E  E     E  E  E  E  E  E  E  E     E  E  E  E  E  E  E  E   
--------------------------|--------------------------|-----------------7--------|
--------------------------|--------------------------|--------------------------|
--------------------------|--5--5--5--5--5--5--5--5--|--5--5--5--5--5-----5-----|
--1--1--1--1--1--1--3--5--|--------------------------|-----------------------5--|


  E  E  E  E  E  E  E  E     E  E  E  E  E  E  E  E     E  E  E  E  E  E  E  E   
--------------------------|--------------------------|--------------------------|
--------------------------|--------------------------|--------------------------|
--------------------------|--------------------------|--5--5--5--5--5--5--5--5--|
--3--3--3--3--3--3--3--3--|--3--3--3--3--3--3--3--5--|--------------------------|


  E  E  E  E  E  E  E  E     H        E  E  Q    Q.     E     E  E  E  E  E  E  E  E   
--------------------------|--------------------------------|--------------------------|
--------------------------|--------------------------------|--------------------------|
--5--5--5--5--5--5--5--5--|----------------------3------5--|--L--5--5--5--5--5--5--5--|
--------------------------|--1--------L--3--5--------------|--------------------------|


  E  E  E  E  E  E  E  E     Q    Q    E  E  Q    Q.     E     E  E  E  E  E  E  E  E   
--------------2--2--------|---------------------------------|--------------------------|
--------2--3--------3--2--|-------3----L--------------------|--------------------------|
--5--5--------------------|-----------------------3------5--|--L--5--5--5--5--5--5--5--|
--------------------------|--1------------3--5--------------|--------------------------|


  E  E  E  E  E  E  Q       E  E  E  E  E  E  Q       E  E  E  E  E  E  S S S S  
-------------------------|-------------------------|--------------7--7----------|
-------------------------|-------------------------|------------------------5-7-|
-----------------3-------|-----5-----------7-------|--5--5--5--5--------7-8-----|
--3--6--3--5--L-----5----|--6-----6--8--L-----8----|----------------------------|


  E  E  E  E  E  E  E  E     E  E  E  E  E  E  E  E     E  E  E  E  E  E  E  E   
--------------------------|--------------------------|--------------------------|
--------------------------|--------------------------|--------------------------|
--------------------------|--------------------3--5--|--6--6--6--6--6--6--6--6--|
--3--3--3--3--3--3--3--3--|--3--3--3--5--5--6--------|--------------------------|


  E  E  E  E  E  E  E  E     E  E  E  E  E  E  E  E     E  E  E  E  E  E  E  E   
--------------------------|--------------------------|--------------------------|
--------------------------|--------------------------|--------------------------|
--6--6--6--5--6--3--------|--------------------------|--------------------3--5--|
--------------------6--5--|--3--3--3--3--3--3--3--3--|--3--3--3--5--5--6--------|


  E  E  E  E  E  E  E  E     E  E  E  E  E  E  E  E     E  E  E  E  E  E  E  E   
--------------------------|--------------------------|--------------------------|
--------------------------|--------------------------|--------------------------|
--6--6--6--6--6--6--6--6--|--6--6--6--5--6--3--------|--------------------------|
--------------------------|--------------------6--5--|--3--3--5--3--3--3--5--3--|


  E  E  E  E  E  E  E  E     E  E  E  E  E  E  E  E     E  E  E  E  E  E  E  E   
--------------------------|--------------------------|--------------------------|
--------------------------|--------------------------|--------------------------|
--------------------------|--------------------------|--------------------------|
--3--3--5--3--3--3--5--3--|--3--3--5--3--3--3--5--3--|--3--3--5--3--3--3--5--3--|


  E  E  E  E  E  E  E  E     E  E  E  E  E  E  E  E     E  E  E  E  E  E  E  E   
--------------------------|--------------------------|--------------------------|
--------------------------|--------------------------|--------------------------|
--------------------------|--------------------------|--------------------------|
--3--3--5--3--3--3--5--3--|--3--3--5--3--3--3--5--3--|--3--3--5--3--3--3--5--3--|


  E  E  S S E  S S E  E  E     E  E  E  E  E  E  E  E     E  E  E  E  E  E  E  E   
----------------------------|--------------------------|--------------------------|
--5--5--3-3-3--2-2-2--------|--------------------------|--------------------------|
----------------------5--3--|--------------------------|--------------------------|
----------------------------|--3--3--5--3--3--3--5--3--|--3--3--5--3--3--3--5--3--|


  E  E  E  E  E  E  E  E     E  E  E  E  E  E  E  E     E  E  E  E  E  E  E  E   
--------------------------|--------------------------|--------------------------|
--------------------------|--------------------------|--------------------------|
--------------------------|--------------------------|--------------------------|
--3--3--5--3--3--3--5--3--|--3--3--5--3--3--3--5--3--|--3--3--5--3--3--3--5--3--|


  E  E  E  E  E  E  E  E     E  E  E  E  E  E  E  E     E  E  E  E  E  E  E  E   
--------------------------|--------------------------|--------------------------|
--------------------------|--------------------------|--------------------------|
--------------------------|--------------------------|--------------------------|
--3--3--5--3--3--3--5--3--|--3--3--5--3--3--3--5--3--|--3--3--5--3--3--3--5--3--|


  H        E  E  Q    Q.     E     E  E  E  E  E  E  E  E     E  E  E  E  E  E  E  E   
--------------------------------|--------------------------|--------------2--2--------|
--------------------------------|--------------------------|--------2--3--------3--2--|
----------------------3------5--|--L--5--5--5--5--5--5--5--|--5--5--------------------|
--1--------L--3--5--------------|--------------------------|--------------------------|


  Q    Q    E  E  Q    Q.     E     E  E  E  E  E  E  E  E     E  E  E  E  E  E  E  E   
---------------------------------|--------------------------|-----------------------2--|
-------3----L--------------------|--------------------------|-----------------2--3-----|
-----------------------3------5--|--L--5--5--5--5--5--5--5--|--5--5--5--5--L-----------|
--1------------3--5--------------|--------------------------|--------------------------|


  Q    Q    E  E  Q    Q.     E     W                   H.            Q      
---------------------------------|-------------------|----------------------|
-------3----L--------------------|-------------------|----------------------|
-----------------------3------5--|--L----------------|--L------------13\----|
--1------------3--5--------------|-------------------|----------------------|


  E  E  E  E  E  E  E  E     E  E  E  E  E  E  E  E     E  E  E  E  E  E  E  E   
--------------------------|--------------------------|--------------------------|
--------------------------|--------------------------|--------------------------|
--------------------------|--------------------------|--5--5--5--5--5--5--5--5--|
--1--1--1--1--1--1--1--1--|--1--1--1--1--1--1--3--5--|--------------------------|


                 ^                                                               
  E  E  E  E  E  E  E  E     E  E  E  E  E  E  E  E     E  E  E  E  E  E  E  E   
-----------------7--------|--------------------------|--------------------------|
--------------------------|--------------------------|--------------------------|
--5--5--5--5--5-----5-----|--------------------------|-----------------------3--|
-----------------------5--|--3--3--3--3--3--3--3--3--|--3--3--3--3--3--3--5-----|


  E  E  E  E  E  E  E  E     E  E  E  E  E  S S E  S S    E  E  E  E  E  E  E  E   
--------------------------|----------------------------|--------------------------|
--------------------------|----------------------------|--------------------------|
--5--5--5--5--5--5--5--5--|--5--5--5--5--5--3-3-3--3-3-|--------------------------|
--------------------------|----------------------------|--1--1--1--1--1--1--1--1--|


                                                                       ^         
  E  E  E  E  E  E  E  E     E  E  E  E  E  E  E  E     E  E  E  E  E  E  E  E   
--------------------------|--------------------------|-----------------7--------|
--------------------------|--------------------------|--------------------------|
--------------------------|--5--5--5--5--5--5--5--5--|--5--5--5--5--5-----5-----|
--1--1--1--1--1--1--3--5--|--------------------------|-----------------------5--|


  E  E  E  E  E  E  E  E     E  E  E  E  E  E  E  E     E  E  E  E  E  E  E  E   
--------------------------|--------------------------|--------------------------|
--------------------------|--------------------------|--------------------------|
--------------------------|-----------------------3--|--5--5--5--5--5--5--5--5--|
--3--3--3--3--3--3--3--3--|--3--3--3--3--3--3--5-----|--------------------------|


  E  E  E  E  E  S S E  S S    E  E  E  E  E  E  E  E     E  E  E  E  E  E  E  E   
----------------------------|--------------------------|--------------------------|
----------------------------|--------------------------|--------------------------|
--5--5--5--5--5--3-3-3--3-3-|--------------------------|--------------------------|
----------------------------|--1--1--1--1--1--1--1--1--|--1--1--1--1--1--1--3--5--|


                                            ^                                    
  E  E  E  E  E  E  E  E     E  E  E  E  E  E  E  E     E  E  E  E  E  E  E  E   
--------------------------|-----------------7--------|--------------------------|
--------------------------|--------------------------|--------------------------|
--5--5--5--5--5--5--5--5--|--5--5--5--5--5-----5-----|--------------------------|
--------------------------|-----------------------5--|--3--3--3--3--3--3--3--3--|


  E  E  E  E  E  E  E  E     E  E  E  E  E  E  E  E     E  E  E    E  E  E  E  E   
--------------------------|--------------------------|----------------------------|
--------------------------|--------------------------|----------------------------|
-----------------------3--|--5--5--5--5--5--5--5--5--|--5--5--5--3g5--L--5--3-----|
--3--3--3--3--3--3--5-----|--------------------------|-------------------------5--|


  H        E  E  Q    Q.     E     E  E  E  E  E  E  E  E     E  E  E  E  E  E  E  E   
--------------------------------|--------------------------|--------------2--2--------|
--------------------------------|--------------------------|--------2--3--------3--2--|
----------------------3------5--|--L--5--5--5--5--5--5--5--|--5--5--------------------|
--1--------L--3--5--------------|--------------------------|--------------------------|


  Q    Q    E  E  Q    Q.     E     E  E  E  E  E  E  E  E     E  E  E  E  Q    E  E   
---------------------------------|--------------------------|--------------2----------|
-------3----L--------------------|--------------------------|--------2--3-------3--2--|
-----------------------3------5--|--L--5--5--5--5--5--5--5--|--5--5-------------------|
--1------------3--5--------------|--------------------------|-------------------------|


  Q    Q    E  E  Q    Q.     E     E  E  E  E  E  E  E  E     E  E  E  E  E  E  E  E   
---------------------------------|--------------------------|--------------------------|
-------3----L--------------------|--------------------------|--------------------------|
-----------------------3------5--|--L--5--5--5--5--5--5--5--|--5--5--5--5--5--5--5--5--|
--1------------3--5--------------|--------------------------|--------------------------|


  E  E  E  E  E  E  Q       E  E  E  E  E  E  Q       E  E  E  E  E  E  E  E   
-------------------------|-------------------------|--------------------------|
-------------------------|-------------------------|--------------------------|
-----------------3-------|-----5-----------7-------|--5--5--5--5--5--5--5--5--|
--3--6--3--5--L-----5----|--6-----6--8--L-----8----|--------------------------|


                 >                                                               
  E  E  E  E  E  E  E  E     E  E  E  E  E  E  E  E     E  E  E  E  E  E  E  E   
--------------------------|--------------------------|--------------------------|
--7--7-----------5--6--7--|--------------------------|--------------------------|
--------5--6--7-----------|--------------------------|--------------------------|
--------------------------|--3--3--5--3--3--3--5--3--|--3--3--5--3--3--3--5--3--|


  E  E  E  E  E  E  E  E     E  E  E  E  E  E  E  E     E  E  E  E  E  E  E  E   
--------------------------|--------------------------|--------------------------|
--------------------------|--------------------------|--------------------------|
--------------------------|--------------------------|--------------------------|
--3--3--5--3--3--3--5--3--|--3--3--5--3--3--3--5--3--|--3--3--5--3--3--3--5--3--|


  E  E  E  E  E  E  E  E     E  E  E  E  E  E  E  E     E  E  E  E  E  E  E  E   
--------------------------|--------------------------|--------------------------|
--------------------------|--------------------------|--------------------------|
--------------------------|--------------------------|--------------------------|
--3--3--5--3--3--3--5--3--|--3--3--5--3--3--3--5--3--|--3--3--5--3--3--3--5--3--|


  E  E  E  E  E  E  E  E     E  E  E  E  E  E  E  E     E  E  E  E  E  E  E  E   
--------------------------|--------------------------|--------------------------|
--------------------------|--------------------------|--------------------------|
--------------------------|--------------------------|--------------------------|
--3--3--5--3--3--3--5--3--|--3--3--5--3--3--3--5--3--|--3--3--5--3--3--3--5--3--|


  E  E  E  E  E  E  E  E     E  E  E  E  E  E  E  E     E  E  E  E  E  E  E  E   
--------------------------|--------------------------|--------------------------|
--------------------------|--------------------------|--------------------------|
--------------------------|--------------------------|--------------------------|
--3--3--5--3--3--3--5--3--|--3--3--5--3--3--3--5--3--|--3--3--5--3--3--3--5--3--|

 
  E  E  E  E  E  E  E  E     E  E  E  E  E  E  E  E                                          
--------------------------|----------------------------------------------------------------||
--------------------------|----------------------------------------------------------------||
--------------------------|----------------------------------------------------------------||
--3--3--5--3--3--3--5--3--|--3--3--5--3--3--3--5--3----------------------------------------||




Duration Legend
---------------
W - whole
H - half
Q - quarter
E - 8th
S - 16th
T - 32nd
X - 64th
. - note dotted
|-n-|  - n-tuplets


Tablature Legend
----------------
L - tied note
x - dead note
g - grace note
(n) - ghost note
> - accentuded note
NH - natural harmonic
AH - artificial harmonic
TH - tapped harmonic
SH - semi harmonic
PH - pitch harmonic
h - hammer on
p - pull off
b - bend
br - bendRelease
pb - preBend
pbr - preBendRelease
brb - bendReleaseBend
\n/ - tremolo bar dip
\n - tremolo bar dive
-/n - tremolo bar Release up
/n\ - tremolo bar inverted dip
/n - tremolo bar return
-\n - tremolo bar Release down
S - shift slide
s - legato slide
/ -  slide into from below or out of upwards
\ -  slide into from above or out of downwards
~ - vibrato
W - wide vibrato
tr - trill
TP - tremolo picking
T - tapping
S - slap
P - pop
< - fade in
^ - brush up
v - brush down



Share "So You Ran" by Orion The Hunter


TOP 10 TABS

FRESH NEW TABS

ALL ARTISTS
artist wiki

mp3bear.com
song lyrics / contact us / privacy policy / tabspace toolbar
Copyright 2004 - 2014 TabSpace.com - All Rights Reserved.
song: so you ran bass tabs by orion the hunter

0.011