:: Guitar & Bass Tabs Make Home Page
A B C D E F G H I J K L M N O P Q R S T U V W X Y Z #

  for    

On TABSPACE
Info About This Tab
Artist: Orion The Hunter
Tab Type: Guitar
Rate This Tab!
-------------------------------------------------------------------------------
			     SO YOU RAN - Orion The Hunter
-------------------------------------------------------------------------------

Tabbed by: Isaias Garcia (TexasFury)

Tuning: Standard


Clean

     W                   E  E  E  E  H           E  E  E  E  H           E  E  E  E  H         
E||-------------------|-----------1--L--------|-----------1--L--------|-----------3--L--------|
B||-------------------|--------1--------------|--------1--------------|--------3--------------|
G||-------------------|-----2-----------------|-----2-----------------|-----2-----------------|
D||-------------------|--3--------------------|--3--------------------|--0--------------------|
A||-------------------|-----------------------|-----------------------|-----------------------|
E||-------------------|-----------------------|-----------------------|-----------------------|


  E  E  E  E  H           E  E  E  E  H           E  E  E  E  H           E  E  E  E  H         
-----------3--L--------|-----------3--L--------|-----------3--L--------|-----------3--L--------|
--------3--------------|--------3--------------|--------3--------------|--------3--------------|
-----2-----------------|-----3-----------------|-----3-----------------|-----2-----------------|
--0--------------------|--5--------------------|--5--------------------|--0--------------------|
-----------------------|-----------------------|-----------------------|-----------------------|
-----------------------|-----------------------|-----------------------|-----------------------|


  E  E  E  E  H           E  E  E  E  H           E  E  E  E  H           E  E  E  E  H         
-----------1--L--------|-----------1--L--------|-----------1--L--------|-----------3--L--------|
--------3--------------|--------1--------------|--------1--------------|--------3--------------|
-----2-----------------|-----2-----------------|-----2-----------------|-----2-----------------|
--0--------------------|--3--------------------|--3--------------------|--0--------------------|
-----------------------|-----------------------|-----------------------|-----------------------|
-----------------------|-----------------------|-----------------------|-----------------------|


  E  E  E  E  H           E  E  E  E  H           E  E  E  E  H           E  E  E  E  H         
-----------3--L--------|-----------3--L--------|-----------3--L--------|-----------3--L--------|
--------3--------------|--------3--------------|--------3--------------|--------3--------------|
-----2-----------------|-----3-----------------|-----3-----------------|-----2-----------------|
--0--------------------|--5--------------------|--5--------------------|--0--------------------|
-----------------------|-----------------------|-----------------------|-----------------------|
-----------------------|-----------------------|-----------------------|-----------------------|


  E  E  E  E  H           E  E  E  E  H           E  E  E  E  H           E  E  E  E  H         
-----------1--L--------|-----------1--L--------|-----------1--L--------|-----------3--L--------|
--------3--------------|--------1--------------|--------1--------------|--------3--------------|
-----2-----------------|-----2-----------------|-----2-----------------|-----2-----------------|
--0--------------------|--3--------------------|--3--------------------|--0--------------------|
-----------------------|-----------------------|-----------------------|-----------------------|
-----------------------|-----------------------|-----------------------|-----------------------|


  E  E  E  E  H           E  E  E  E  H           E  E  E  E  H           E  E  E  E  H         
-----------3--L--------|-----------3--L--------|-----------3--L--------|-----------3--L--------|
--------3--------------|--------3--------------|--------3--------------|--------3--------------|
-----2-----------------|-----3-----------------|-----3-----------------|-----2-----------------|
--0--------------------|--5--------------------|--5--------------------|--0--------------------|
-----------------------|-----------------------|-----------------------|-----------------------|
-----------------------|-----------------------|-----------------------|-----------------------|


  E  E  E  E  H           W                H           W                   W                 
-----------1--L--------|----------------------------|-------------------|-------------------|
--------3--------------|----------------------------|-------------------|-------------------|
-----2-----------------|----------------------------|-------------------|-------------------|
--0--------------------|----------------------------|-------------------|-------------------|
-----------------------|----------------------------|-------------------|-------------------|
-----------------------|----------------------------|-------------------|-------------------|


  W                H           W                   W                   W                 
----------------------------|-------------------|-------------------|-------------------|
----------------------------|-------------------|-------------------|-------------------|
----------------------------|-------------------|-------------------|-------------------|
----------------------------|-------------------|-------------------|-------------------|
----------------------------|-------------------|-------------------|-------------------|
----------------------------|-------------------|-------------------|-------------------|


  W                   W                   E  E  E  E  H           E  E  E  E  H         
-------------------|-------------------|-----------1--L--------|-----------1--L--------|
-------------------|-------------------|--------1--------------|--------1--------------|
-------------------|-------------------|-----2-----------------|-----2-----------------|
-------------------|-------------------|--3--------------------|--3--------------------|
-------------------|-------------------|-----------------------|-----------------------|
-------------------|-------------------|-----------------------|-----------------------|


  E  E  E  E  H           E  E  E  E  H           E  E  E  E  H           E  E  E  E  H         
-----------3--L--------|-----------3--L--------|-----------3--L--------|-----------3--L--------|
--------3--------------|--------3--------------|--------3--------------|--------3--------------|
-----2-----------------|-----2-----------------|-----3-----------------|-----3-----------------|
--0--------------------|--0--------------------|--5--------------------|--5--------------------|
-----------------------|-----------------------|-----------------------|-----------------------|
-----------------------|-----------------------|-----------------------|-----------------------|


  E  E  E  E  H           E  E  E  E  H           E  E  E  E  H           E  E  E  E  H         
-----------3--L--------|-----------1--L--------|-----------1--L--------|-----------1--L--------|
--------3--------------|--------3--------------|--------1--------------|--------1--------------|
-----2-----------------|-----2-----------------|-----2-----------------|-----2-----------------|
--0--------------------|--0--------------------|--3--------------------|--3--------------------|
-----------------------|-----------------------|-----------------------|-----------------------|
-----------------------|-----------------------|-----------------------|-----------------------|


  E  E  E  E  H           E  E  E  E  H           E  E  E  E  H           E  E  E  E  H         
-----------3--L--------|-----------3--L--------|-----------3--L--------|-----------3--L--------|
--------3--------------|--------3--------------|--------3--------------|--------3--------------|
-----2-----------------|-----2-----------------|-----3-----------------|-----3-----------------|
--0--------------------|--0--------------------|--5--------------------|--5--------------------|
-----------------------|-----------------------|-----------------------|-----------------------|
-----------------------|-----------------------|-----------------------|-----------------------|


  E  E  E  E  H           E  E  E  E  H           W                H           W                 
-----------3--L--------|-----------1--L--------|----------------------------|-------------------|
--------3--------------|--------3--------------|----------------------------|-------------------|
-----2-----------------|-----2-----------------|----------------------------|-------------------|
--0--------------------|--0--------------------|----------------------------|-------------------|
-----------------------|-----------------------|----------------------------|-------------------|
-----------------------|-----------------------|----------------------------|-------------------|


m.90
  W                   W                   E  E  E  E  H           E  E  E  E  H         
-------------------|-------------------|-----------1--L--------|-----------1--L--------|
-------------------|-------------------|--------1--------------|--------1--------------|
-------------------|-------------------|-----2-----------------|-----2-----------------|
-------------------|-------------------|--3--------------------|--3--------------------|
-------------------|-------------------|-----------------------|-----------------------|
-------------------|-------------------|-----------------------|-----------------------|


  E  E  E  E  H           E  E  E  E  H           E  E  E  E  H           E  E  E  E  H         
-----------3--L--------|-----------3--L--------|-----------3--L--------|-----------3--L--------|
--------3--------------|--------3--------------|--------3--------------|--------3--------------|
-----2-----------------|-----2-----------------|-----3-----------------|-----3-----------------|
--0--------------------|--0--------------------|--5--------------------|--5--------------------|
-----------------------|-----------------------|-----------------------|-----------------------|
-----------------------|-----------------------|-----------------------|-----------------------|


  E  E  E  E  H           E  E  E  E  H           E  E  E  E  H           E  E  E  E  H         
-----------3--L--------|-----------1--L--------|-----------1--L--------|-----------1--L--------|
--------3--------------|--------3--------------|--------1--------------|--------1--------------|
-----2-----------------|-----2-----------------|-----2-----------------|-----2-----------------|
--0--------------------|--0--------------------|--3--------------------|--3--------------------|
-----------------------|-----------------------|-----------------------|-----------------------|
-----------------------|-----------------------|-----------------------|-----------------------|


  E  E  E  E  H           E  E  E  E  H           E  E  E  E  H           E  E  E  E  H         
-----------3--L--------|-----------3--L--------|-----------3--L--------|-----------3--L--------|
--------3--------------|--------3--------------|--------3--------------|--------3--------------|
-----2-----------------|-----2-----------------|-----3-----------------|-----3-----------------|
--0--------------------|--0--------------------|--5--------------------|--5--------------------|
-----------------------|-----------------------|-----------------------|-----------------------|
-----------------------|-----------------------|-----------------------|-----------------------|


  E  E  E  E  H           E  E  E  E  H           E  E  E  E  H           E  E  E  E  H         
-----------3--L--------|-----------1--L--------|-----------1--L--------|-----------1--L--------|
--------3--------------|--------3--------------|--------1--------------|--------1--------------|
-----2-----------------|-----2-----------------|-----2-----------------|-----2-----------------|
--0--------------------|--0--------------------|--3--------------------|--3--------------------|
-----------------------|-----------------------|-----------------------|-----------------------|
-----------------------|-----------------------|-----------------------|-----------------------|


  E  E  E  E  H           E  E  E  E  H           E  E  E  E  H           E  E  E  E  H         
-----------3--L--------|-----------3--L--------|-----------3--L--------|-----------3--L--------|
--------3--------------|--------3--------------|--------3--------------|--------3--------------|
-----2-----------------|-----2-----------------|-----3-----------------|-----3-----------------|
--0--------------------|--0--------------------|--5--------------------|--5--------------------|
-----------------------|-----------------------|-----------------------|-----------------------|
-----------------------|-----------------------|-----------------------|-----------------------|


  E  E  E  E  H           E  E  E  E  H           W                H           W                 
-----------3--L--------|-----------1--L--------|----------------------------|-------------------|
--------3--------------|--------3--------------|----------------------------|-------------------|
-----2-----------------|-----2-----------------|----------------------------|-------------------|
--0--------------------|--0--------------------|----------------------------|-------------------|
-----------------------|-----------------------|----------------------------|-------------------|
-----------------------|-----------------------|----------------------------|-------------------|



Rhythm - overdriven

                         PM PM PM PM PM PM PM PM    PM PM PM PM PM PM PM PM  
     W                   E  E  E  E  E  E  E  E     E  E  E  E  E  E  E  E   
E||-------------------|--------------3-----------|--------------3-----------|
B||-------------------|--------6--------6-----6--|--------6--------6-----6--|
G||-------------------|-----5-----5--------5-----|-----5-----5--------5-----|
D||-------------------|--3-----------------------|--3-----------------------|
A||-------------------|--------------------------|--------------------------|
E||-------------------|--------------------------|--------------------------|


  PM PM PM PM PM PM PM PM    PM PM PM PM PM PM PM PM    PM PM PM PM PM PM PM PM  
  E  E  E  E  E  E  E  E     E  E  E  E  E  E  E  E     E  E  E  E  E  E  E  E   
--------------------------|--------------------------|--------------------------|
--------3-----------------|--------3-----------------|--------3-----------------|
-----2-----2-----2--3--2--|-----2-----2-----2--3--2--|--0--3-----3--0--3--2--3--|
--0-----------0-----------|--0-----------0-----------|--------------------------|
--------------------------|--------------------------|--------------------------|
--------------------------|--------------------------|--------------------------|


  PM PM PM PM PM PM PM PM    PM PM PM PM PM PM PM PM    PM PM PM PM PM PM PM PM  
  E  E  E  E  E  E  E  E     E  E  E  E  E  E  E  E     E  E  E  E  E  E  E  E   
--------------------------|--------------------------|--------------------------|
--------3-----------------|--------3-----------------|--------3-----------------|
--0--3-----3--0--3--2--3--|-----2-----2-----2--3--2--|-----2-----2-----2--3--0--|
--------------------------|--0-----------0-----------|--0-----------0-----------|
--------------------------|--------------------------|--------------------------|
--------------------------|--------------------------|--------------------------|


  PM PM PM PM PM PM PM PM    PM PM PM PM PM PM PM PM    PM PM PM PM PM PM PM PM  
  E  E  E  E  E  E  E  E     E  E  E  E  E  E  E  E     E  E  E  E  E  E  E  E   
--------------3-----------|--------------3-----------|--------------------------|
--------6--------6-----6--|--------6--------6-----6--|--------3-----------------|
-----5-----5--------5-----|-----5-----5--------5-----|-----2-----2-----2--3--2--|
--3-----------------------|--3-----------------------|--0-----------0-----------|
--------------------------|--------------------------|--------------------------|
--------------------------|--------------------------|--------------------------|


  PM PM PM PM PM PM PM PM    PM PM PM PM PM PM PM PM    PM PM PM PM PM PM PM PM  
  E  E  E  E  E  E  E  E     E  E  E  E  E  E  E  E     E  E  E  E  E  E  E  E   
--------------------------|--------------------------|--------------------------|
--------3-----------------|--------3-----------------|--------3-----------------|
-----2-----2-----2--3--2--|--0--3-----3--0--3--2--3--|--0--3-----3--0--3--2--3--|
--0-----------0-----------|--------------------------|--------------------------|
--------------------------|--------------------------|--------------------------|
--------------------------|--------------------------|--------------------------|


  PM PM PM PM PM PM PM PM    PM PM PM PM PM PM PM PM    PM PM PM PM PM PM PM PM  
  E  E  E  E  E  E  E  E     E  E  E  E  E  E  E  E     E  E  E  E  E  E  E  E   
--------------------------|--------------------------|--------------3-----------|
--------3-----------------|--------3-----------------|--------6--------6-----6--|
-----2-----2-----2--3--2--|-----2-----2-----2--3--0--|-----5-----5--------5-----|
--0-----------0-----------|--0-----------0-----------|--3-----------------------|
--------------------------|--------------------------|--------------------------|
--------------------------|--------------------------|--------------------------|


  PM PM PM PM    PM PM PM    PM PM PM PM PM PM PM PM    PM PM PM PM PM PM PM PM  
  E  E  E  E  E  E  E  E     E  E  E  E  E  E  E  E     E  E  E  E  E  E  E  E   
--------------3-----------|--------------------------|--------------------------|
--------6--------6-----6--|--------3-----------------|--------3-----------------|
-----5-----5--------5-----|-----2-----2-----2--3--2--|-----2-----2-----2--3--2--|
--3-----------------------|--0-----------0-----------|--0-----------0-----------|
--------------------------|--------------------------|--------------------------|
--------------------------|--------------------------|--------------------------|


  PM PM PM PM PM PM PM PM    PM PM PM PM PM PM PM PM    PM PM PM PM PM PM PM PM  
  E  E  E  E  E  E  E  E     E  E  E  E  E  E  E  E     E  E  E  E  E  E  E  E   
--------------------------|--------------------------|--------------------------|
--------3-----------------|--------3-----------------|--------3-----------------|
--0--3-----3--0--3--2--3--|--0--3-----3--0--3--2--3--|-----2-----2-----2--3--2--|
--------------------------|--------------------------|--0-----------0-----------|
--------------------------|--------------------------|--------------------------|
--------------------------|--------------------------|--------------------------|


  PM PM PM PM PM PM PM PM                                                                       
  E  E  E  E  E  E  E  E     W                H           W                   W                 
--------------------------|----------------------------|-------------------|-------------------|
--------3-----------------|----------------------------|-------------------|-------------------|
-----2-----2-----2--3--0--|----------------------------|-------------------|-------------------|
--0-----------0-----------|----------------------------|-------------------|-------------------|
--------------------------|----------------------------|-------------------|-------------------|
--------------------------|----------------------------|-------------------|-------------------|


  W                H           W                   W                   W                 
----------------------------|-------------------|-------------------|-------------------|
----------------------------|-------------------|-------------------|-------------------|
----------------------------|-------------------|-------------------|-------------------|
----------------------------|-------------------|-------------------|-------------------|
----------------------------|-------------------|-------------------|-------------------|
----------------------------|-------------------|-------------------|-------------------|


                                          PM PM PM PM PM PM PM PM    PM PM PM PM PM PM PM PM  
  W                   W                   E  E  E  E  E  E  E  E     E  E  E  E  E  E  E  E   
-------------------|-------------------|--------------3-----------|--------------3-----------|
-------------------|-------------------|--------6--------6-----6--|--------6--------6-----6--|
-------------------|-------------------|-----5-----5--------5-----|-----5-----5--------5-----|
-------------------|-------------------|--3-----------------------|--3-----------------------|
-------------------|-------------------|--------------------------|--------------------------|
-------------------|-------------------|--------------------------|--------------------------|


  PM PM PM PM PM PM PM PM    PM PM PM PM PM PM PM PM    PM PM PM PM PM PM PM PM  
  E  E  E  E  E  E  E  E     E  E  E  E  E  E  E  E     E  E  E  E  E  E  E  E   
--------------------------|--------------------------|--------------------------|
--------3-----------------|--------3-----------------|--------3-----------------|
-----2-----2-----2--3--2--|-----2-----2-----2--3--2--|--0--3-----3--0--3--2--3--|
--0-----------0-----------|--0-----------0-----------|--------------------------|
--------------------------|--------------------------|--------------------------|
--------------------------|--------------------------|--------------------------|


  PM PM PM PM PM PM PM PM    PM PM PM PM PM PM PM PM    PM PM PM PM PM PM PM PM  
  E  E  E  E  E  E  E  E     E  E  E  E  E  E  E  E     E  E  E  E  E  E  E  E   
--------------------------|--------------------------|--------------------------|
--------3-----------------|--------3-----------------|--------3-----------------|
--0--3-----3--0--3--2--3--|-----2-----2-----2--3--2--|-----2-----2-----2--3--0--|
--------------------------|--0-----------0-----------|--0-----------0-----------|
--------------------------|--------------------------|--------------------------|
--------------------------|--------------------------|--------------------------|


  PM PM PM PM PM PM PM PM    PM PM PM PM PM PM PM PM    PM PM PM PM PM PM PM PM  
  E  E  E  E  E  E  E  E     E  E  E  E  E  E  E  E     E  E  E  E  E  E  E  E   
--------------3-----------|--------------3-----------|--------------------------|
--------6--------6-----6--|--------6--------6-----6--|--------3-----------------|
-----5-----5--------5-----|-----5-----5--------5-----|-----2-----2-----2--3--2--|
--3-----------------------|--3-----------------------|--0-----------0-----------|
--------------------------|--------------------------|--------------------------|
--------------------------|--------------------------|--------------------------|


  PM PM PM PM PM PM PM PM    PM PM PM PM PM PM PM PM    PM PM PM PM PM PM PM PM  
  E  E  E  E  E  E  E  E     E  E  E  E  E  E  E  E     E  E  E  E  E  E  E  E   
--------------------------|--------------------------|--------------------------|
--------3-----------------|--------3-----------------|--------3-----------------|
-----2-----2-----2--3--2--|--0--3-----3--0--3--2--3--|--0--3-----3--0--3--2--3--|
--0-----------0-----------|--------------------------|--------------------------|
--------------------------|--------------------------|--------------------------|
--------------------------|--------------------------|--------------------------|


  PM PM PM PM PM PM PM PM    PM PM PM PM PM PM PM PM                               
  E  E  E  E  E  E  E  E     E  E  E  E  E  E  E  E     W                H         
--------------------------|--------------------------|----------------------------|
--------3-----------------|--------3-----------------|----------------------------|
-----2-----2-----2--3--2--|-----2-----2-----2--3--0--|----------------------------|
--0-----------0-----------|--0-----------0-----------|----------------------------|
--------------------------|--------------------------|----------------------------|
--------------------------|--------------------------|----------------------------|


  W                   W                   W                H           W                 
-------------------|-------------------|----------------------------|-------------------|
-------------------|-------------------|----------------------------|-------------------|
-------------------|-------------------|----------------------------|-------------------|
-------------------|-------------------|----------------------------|-------------------|
-------------------|-------------------|----------------------------|-------------------|
-------------------|-------------------|----------------------------|-------------------|


  W                   W                   W                   W                   W                 
-------------------|-------------------|-------------------|-------------------|-------------------|
-------------------|-------------------|-------------------|-------------------|-------------------|
-------------------|-------------------|-------------------|-------------------|-------------------|
-------------------|-------------------|-------------------|-------------------|-------------------|
-------------------|-------------------|-------------------|-------------------|-------------------|
-------------------|-------------------|-------------------|-------------------|-------------------|


  W                   W                   W                   W                   W                 
-------------------|-------------------|-------------------|-------------------|-------------------|
-------------------|-------------------|-------------------|-------------------|-------------------|
-------------------|-------------------|-------------------|-------------------|-------------------|
-------------------|-------------------|-------------------|-------------------|-------------------|
-------------------|-------------------|-------------------|-------------------|-------------------|
-------------------|-------------------|-------------------|-------------------|-------------------|


  W                   W                   W                   W                   W                 
-------------------|-------------------|-------------------|-------------------|-------------------|
-------------------|-------------------|-------------------|-------------------|-------------------|
-------------------|-------------------|-------------------|-------------------|-------------------|
-------------------|-------------------|-------------------|-------------------|-------------------|
-------------------|-------------------|-------------------|-------------------|-------------------|
-------------------|-------------------|-------------------|-------------------|-------------------|


  W                   W                   W                   W                   W                 
-------------------|-------------------|-------------------|-------------------|-------------------|
-------------------|-------------------|-------------------|-------------------|-------------------|
-------------------|-------------------|-------------------|-------------------|-------------------|
-------------------|-------------------|-------------------|-------------------|-------------------|
-------------------|-------------------|-------------------|-------------------|-------------------|
-------------------|-------------------|-------------------|-------------------|-------------------|


  W                   W                   W                   W                   W                 
-------------------|-------------------|-------------------|-------------------|-------------------|
-------------------|-------------------|-------------------|-------------------|-------------------|
-------------------|-------------------|-------------------|-------------------|-------------------|
-------------------|-------------------|-------------------|-------------------|-------------------|
-------------------|-------------------|-------------------|-------------------|-------------------|
-------------------|-------------------|-------------------|-------------------|-------------------|


  W                   W                   W                H           W                 
-------------------|-------------------|----------------------------|-------------------|
-------------------|-------------------|----------------------------|-------------------|
-------------------|-------------------|----------------------------|-------------------|
-------------------|-------------------|----------------------------|-------------------|
-------------------|-------------------|----------------------------|-------------------|
-------------------|-------------------|----------------------------|-------------------|


  W                   W                H           W                   W                 
-------------------|----------------------------|-------------------|-------------------|
-------------------|----------------------------|-------------------|-------------------|
-------------------|----------------------------|-------------------|-------------------|
-------------------|----------------------------|-------------------|-------------------|
-------------------|----------------------------|-------------------|-------------------|
-------------------|----------------------------|-------------------|-------------------|


                                                                       PM PM PM PM PM PM PM PM  
  W                H           W                   W                   E  E  E  E  E  E  E  E   
----------------------------|-------------------|-------------------|--------------3-----------|
----------------------------|-------------------|-------------------|--------6--------6-----6--|
----------------------------|-------------------|-------------------|-----5-----5--------5-----|
----------------------------|-------------------|-------------------|--3-----------------------|
----------------------------|-------------------|-------------------|--------------------------|
----------------------------|-------------------|-------------------|--------------------------|


  PM PM PM PM PM PM PM PM    PM PM PM PM PM PM PM PM    PM PM PM PM PM PM PM PM  
  E  E  E  E  E  E  E  E     E  E  E  E  E  E  E  E     E  E  E  E  E  E  E  E   
--------------3-----------|--------------------------|--------------------------|
--------6--------6-----6--|--------3-----------------|--------3-----------------|
-----5-----5--------5-----|-----2-----2-----2--3--2--|-----2-----2-----2--3--2--|
--3-----------------------|--0-----------0-----------|--0-----------0-----------|
--------------------------|--------------------------|--------------------------|
--------------------------|--------------------------|--------------------------|


  PM PM PM PM PM PM PM PM    PM PM PM PM PM PM PM PM    PM PM    PM PM PM PM PM  
  E  E  E  E  E  E  E  E     E  E  E  E  E  E  E  E     E  E  E  E  E  E  E  E   
--------------------------|--------------------------|--------------------------|
--------3-----------------|--------3-----------------|--------3-----------------|
--0--3-----3--0--3--2--3--|--0--3-----3--0--3--2--3--|-----2-----2-----2--3--2--|
--------------------------|--------------------------|--0-----------0-----------|
--------------------------|--------------------------|--------------------------|
--------------------------|--------------------------|--------------------------|


  PM PM PM PM PM PM PM PM    PM PM PM PM PM PM PM PM    PM PM PM PM PM PM PM PM  
  E  E  E  E  E  E  E  E     E  E  E  E  E  E  E  E     E  E  E  E  E  E  E  E   
--------------------------|--------------3-----------|--------------3-----------|
--------3-----------------|--------6--------6-----6--|--------6--------6-----6--|
-----2-----2-----2--3--0--|-----5-----5--------5-----|-----5-----5--------5-----|
--0-----------0-----------|--3-----------------------|--3-----------------------|
--------------------------|--------------------------|--------------------------|
--------------------------|--------------------------|--------------------------|


  PM PM PM PM PM PM PM PM    PM PM PM PM PM PM PM PM    PM PM PM PM PM PM PM PM  
  E  E  E  E  E  E  E  E     E  E  E  E  E  E  E  E     E  E  E  E  E  E  E  E   
--------------------------|--------------------------|--------------------------|
--------3-----------------|--------3-----------------|--------3-----------------|
-----2-----2-----2--3--2--|-----2-----2-----2--3--2--|--0--3-----3--0--3--2--3--|
--0-----------0-----------|--0-----------0-----------|--------------------------|
--------------------------|--------------------------|--------------------------|
--------------------------|--------------------------|--------------------------|


  PM PM PM PM PM PM PM PM    PM PM    PM PM PM PM PM    PM PM PM PM PM PM PM PM  
  E  E  E  E  E  E  E  E     E  E  E  E  E  E  E  E     E  E  E  E  E  E  E  E   
--------------------------|--------------------------|--------------------------|
--------3-----------------|--------3-----------------|--------3-----------------|
--0--3-----3--0--3--2--3--|-----2-----2-----2--3--2--|-----2-----2-----2--3--0--|
--------------------------|--0-----------0-----------|--0-----------0-----------|
--------------------------|--------------------------|--------------------------|
--------------------------|--------------------------|--------------------------|


  PM PM PM PM PM PM PM PM    PM PM PM PM PM PM PM PM    PM PM PM PM PM PM PM PM  
  E  E  E  E  E  E  E  E     E  E  E  E  E  E  E  E     E  E  E  E  E  E  E  E   
--------------3-----------|--------------3-----------|--------------------------|
--------6--------6-----6--|--------6--------6-----6--|--------3-----------------|
-----5-----5--------5-----|-----5-----5--------5-----|-----2-----2-----2--3--2--|
--3-----------------------|--3-----------------------|--0-----------0-----------|
--------------------------|--------------------------|--------------------------|
--------------------------|--------------------------|--------------------------|


  PM PM PM PM PM PM PM PM    PM PM PM PM PM PM PM PM    PM PM PM PM PM PM PM PM  
  E  E  E  E  E  E  E  E     E  E  E  E  E  E  E  E     E  E  E  E  E  E  E  E   
--------------------------|--------------------------|--------------------------|
--------3-----------------|--------3-----------------|--------3-----------------|
-----2-----2-----2--3--2--|--0--3-----3--0--3--2--3--|--0--3-----3--0--3--2--3--|
--0-----------0-----------|--------------------------|--------------------------|
--------------------------|--------------------------|--------------------------|
--------------------------|--------------------------|--------------------------|


  PM PM    PM PM PM PM PM    PM PM PM PM PM PM PM PM                               
  E  E  E  E  E  E  E  E     E  E  E  E  E  E  E  E     W                H         
--------------------------|--------------------------|----------------------------|
--------3-----------------|--------3-----------------|----------------------------|
-----2-----2-----2--3--2--|-----2-----2-----2--3--0--|----------------------------|
--0-----------0-----------|--0-----------0-----------|----------------------------|
--------------------------|--------------------------|----------------------------|
--------------------------|--------------------------|----------------------------|




Rhythm - heavy

     W                   W                   W                   W                 
E||-------------------|-------------------|-------------------|-------------------|
B||-------------------|-------------------|-------------------|-------------------|
G||-------------------|-------------------|-------------------|-------------------|
D||-------------------|-------------------|-------------------|-------------------|
A||-------------------|-------------------|-------------------|-------------------|
E||-------------------|-------------------|-------------------|-------------------|


  W                   W                   W                   W                   W                 
-------------------|-------------------|-------------------|-------------------|-------------------|
-------------------|-------------------|-------------------|-------------------|-------------------|
-------------------|-------------------|-------------------|-------------------|-------------------|
-------------------|-------------------|-------------------|-------------------|-------------------|
-------------------|-------------------|-------------------|-------------------|-------------------|
-------------------|-------------------|-------------------|-------------------|-------------------|


  W                   W                   W                   W                   W                 
-------------------|-------------------|-------------------|-------------------|-------------------|
-------------------|-------------------|-------------------|-------------------|-------------------|
-------------------|-------------------|-------------------|-------------------|-------------------|
-------------------|-------------------|-------------------|-------------------|-------------------|
-------------------|-------------------|-------------------|-------------------|-------------------|
-------------------|-------------------|-------------------|-------------------|-------------------|


  W                   W                   W                   W                   W                 
-------------------|-------------------|-------------------|-------------------|-------------------|
-------------------|-------------------|-------------------|-------------------|-------------------|
-------------------|-------------------|-------------------|-------------------|-------------------|
-------------------|-------------------|-------------------|-------------------|-------------------|
-------------------|-------------------|-------------------|-------------------|-------------------|
-------------------|-------------------|-------------------|-------------------|-------------------|


  W                   W                   W                   W                   W                 
-------------------|-------------------|-------------------|-------------------|-------------------|
-------------------|-------------------|-------------------|-------------------|-------------------|
-------------------|-------------------|-------------------|-------------------|-------------------|
-------------------|-------------------|-------------------|-------------------|-------------------|
-------------------|-------------------|-------------------|-------------------|-------------------|
-------------------|-------------------|-------------------|-------------------|-------------------|


  W                   W                Q    E  E     Q    Q    E  E  E  E   
-------------------|------------------------------|------------------------|
-------------------|------------------------------|------------------------|
-------------------|-------------------5----5--7--|--7----7----x--5-----x--|
-------------------|--3----------------5----L--7--|--L----7----x--5-----x--|
-------------------|--3----------------3----L--5--|--L----5----------------|
-------------------|--1---------------------------|------------------------|


  Q    E  E  E  E  Q       W                Q    E  E     Q    Q    E  E  E  E   
------------------------|------------------------------|------------------------|
--6---------------------|------------------------------|------------------------|
--7-------5--L--7--7----|-------------------5----5--7--|--7----7----x--5-----x--|
--7-------5--L--7--7----|--3----------------5----L--7--|--L----7----x--5-----x--|
----------5--L--5--5----|--3----------------3----L--5--|--L----5----------------|
------------------------|--1---------------------------|------------------------|


                    PM                      PM                                          
  Q    E  E  Q.     E     Q    E  E  Q.     E     W                   W                 
-----------------------|-----------------------|-------------------|-------------------|
-----------------------|-----------------------|-------------------|-------------------|
-----------------------|----------5--L---------|--7----------------|--L----------------|
--5----x--7--L---------|--8-------5--L---------|--7----------------|--L----------------|
--5----x--7--L---------|--8-------3--L------0--|--5----------------|--L----------------|
--3----x--5--L------5--|--6--------------------|-------------------|-------------------|


  W                   W                   W                   W                   W                 
-------------------|-------------------|-------------------|-------------------|-------------------|
-------------------|-------------------|-------------------|-------------------|-------------------|
-------------------|-------------------|-------------------|-------------------|-------------------|
-------------------|-------------------|-------------------|-------------------|-------------------|
-------------------|-------------------|-------------------|-------------------|-------------------|
-------------------|-------------------|-------------------|-------------------|-------------------|


  W                   W                   W                   W                   W                 
-------------------|-------------------|-------------------|-------------------|-------------------|
-------------------|-------------------|-------------------|-------------------|-------------------|
-------------------|-------------------|-------------------|-------------------|-------------------|
-------------------|-------------------|-------------------|-------------------|-------------------|
-------------------|-------------------|-------------------|-------------------|-------------------|
-------------------|-------------------|-------------------|-------------------|-------------------|


  W                   W                   W                   W                   W                 
-------------------|-------------------|-------------------|-------------------|-------------------|
-------------------|-------------------|-------------------|-------------------|-------------------|
-------------------|-------------------|-------------------|-------------------|-------------------|
-------------------|-------------------|-------------------|-------------------|-------------------|
-------------------|-------------------|-------------------|-------------------|-------------------|
-------------------|-------------------|-------------------|-------------------|-------------------|


  W                   W                Q    E  E     Q    Q    E  E  E  E   
-------------------|------------------------------|------------------------|
-------------------|------------------------------|------------------------|
-------------------|-------------------5----L--7--|--L----7----x--5-----x--|
-------------------|--3----------------5----L--7--|--L----7----x--5-----x--|
-------------------|--3----------------3----L--5--|--L----5----------------|
-------------------|--1---------------------------|------------------------|


  Q    E  E  E  E  Q       W                Q    E  E     Q    Q    E  E  E  E   
------------------------|------------------------------|------------------------|
--6---------------------|------------------------------|------------------------|
--7-------5--L--7--7----|-------------------5----L--7--|--L----7----x--5-----x--|
--7-------5--L--7--7----|--3----------------5----L--7--|--L----7----x--5-----x--|
----------5--L--5--5----|--3----------------3----L--5--|--L----5----------------|
------------------------|--1---------------------------|------------------------|


                    PM                      PM                                          
  Q    E  E  Q.     E     Q    E  E  Q.     E     W                   W                 
-----------------------|-----------------------|-------------------|-------------------|
-----------------------|-----------------------|-------------------|-------------------|
-----------------------|----------5--L---------|--7----------------|-------------------|
--5----x--7--L---------|--8-------5--L---------|--7----------------|--5----------------|
--5----x--7--L---------|--8-------3--L------0--|--5----------------|--5----------------|
--3----x--5--L------5--|--6--------------------|-------------------|--3----------------|


  PM PM PM PM PM PM PM PM                                                                     
  E  E  E  E  E  E  E  E     W                   E  E  E  E  E  E  E  E     W                 
--------------------------|-------------------|--------------------------|-------------------|
--------------------------|-------------------|--------------------------|-------------------|
--------------------------|--8----------------|--8--8--8--8--8--8--8--8--|-------------------|
--5--5--5--5--5--5--5--5--|--8----------------|--8--8--8--8--8--8--8--8--|--5----------------|
--5--5--5--5--5--5--5--5--|--6----------------|--6--6--6--6--6--6--6--6--|--5----------------|
--3--3--3--3--3--3--3--3--|-------------------|--------------------------|--3----------------|


  PM PM PM PM PM PM PM PM                                                 
  E  E  E  E  E  E  E  E     W                   E  E  E  E  E  E  E  E   
--------------------------|-------------------|--------------------------|
--------------------------|-------------------|--------------------------|
--------------------------|--8----------------|--8--8--8--8--8--8--8--8--|
--5--5--5--5--5--5--5--5--|--8----------------|--8--8--8--8--8--8--8--8--|
--5--5--5--5--5--5--5--5--|--6----------------|--6--6--6--6--6--6--6--6--|
--3--3--3--3--3--3--3--3--|-------------------|--------------------------|


  PM PM PM PM PM PM PM PM    PM PM PM PM PM PM PM PM    PM PM PM PM PM PM PM PM  
  E  E  E  E  E  E  E  E     E  E  E  E  E  E  E  E     E  E  E  E  E  E  E  E   
--------------------------|--------------------------|--------------------------|
--------------------------|--------------------------|--------------------------|
--------------------------|--------------------------|--------------------------|
--------------------------|--------------------------|--------------------------|
--------------------------|--------------------------|--------------------------|
--3--3--5--3--3--3--5--3--|--3--3--5--3--3--3--5--3--|--3--3--5--3--3--3--5--3--|


  PM PM PM PM PM PM PM PM    PM PM PM PM PM PM PM PM    PM PM PM PM PM PM PM PM  
  E  E  E  E  E  E  E  E     E  E  E  E  E  E  E  E     E  E  E  E  E  E  E  E   
--------------------------|--------------------------|--------------------------|
--------------------------|--------------------------|--------------------------|
--------------------------|--------------------------|--------------------------|
--------------------------|--------------------------|--------------------------|
--------------------------|--------------------------|--------------------------|
--3--3--5--3--3--3--5--3--|--3--3--5--3--3--3--5--3--|--3--3--5--3--3--3--5--3--|


  PM PM PM PM PM PM PM PM    PM PM PM PM PM PM PM PM    PM PM PM PM PM PM PM PM  
  E  E  E  E  E  E  E  E     E  E  E  E  E  E  E  E     E  E  E  E  E  E  E  E   
--------------------------|--------------------------|--------------------------|
--------------------------|--------------------------|--------------------------|
--------------------------|--------------------------|--------------------------|
--------------------------|--------------------------|--------------------------|
--------------------------|--------------------------|--------------------------|
--3--3--5--3--3--3--5--3--|--3--3--5--3--3--3--5--3--|--3--3--5--3--3--3--5--3--|


  PM PM PM PM PM PM PM PM    PM PM PM PM PM PM PM PM    PM PM PM PM PM PM PM PM  
  E  E  E  E  E  E  E  E     E  E  E  E  E  E  E  E     E  E  E  E  E  E  E  E   
--------------------------|--------------------------|--------------------------|
--------------------------|--------------------------|--------------------------|
--------------------------|--------------------------|--------------------------|
--------------------------|--------------------------|--------------------------|
--------------------------|--------------------------|--------------------------|
--3--3--5--3--3--3--5--3--|--3--3--5--3--3--3--5--3--|--3--3--5--3--3--3--5--3--|


  PM PM PM PM PM PM PM PM    PM PM PM PM PM PM PM PM    PM PM PM PM PM PM PM PM  
  E  E  E  E  E  E  E  E     E  E  E  E  E  E  E  E     E  E  E  E  E  E  E  E   
--------------------------|--------------------------|--------------------------|
--------------------------|--------------------------|--------------------------|
--------------------------|--------------------------|--------------------------|
--------------------------|--------------------------|--------------------------|
--------------------------|--------------------------|--------------------------|
--3--3--5--3--3--3--5--3--|--3--3--5--3--3--3--5--3--|--3--3--5--3--3--3--5--3--|


  PM PM PM PM PM PM PM PM                                                          
  E  E  E  E  E  E  E  E     W                Q    E  E     Q    Q    E  E  E  E   
--------------------------|------------------------------|------------------------|
--------------------------|------------------------------|------------------------|
--------------------------|-------------------5----L--7--|--L----7----x--5-----x--|
--------------------------|--3----------------5----L--7--|--L----7----x--5-----x--|
--------------------------|--3----------------3----L--5--|--L----5----------------|
--3--3--5--3--3--3--5--3--|--1---------------------------|------------------------|


  Q    E  E  E  E  Q       W                Q    E  E     Q    Q    E  E  E  E   
------------------------|------------------------------|------------------------|
--6---------------------|------------------------------|------------------------|
--7-------5--L--7--7----|-------------------5----L--7--|--L----7----x--5-----x--|
--7-------5--L--7--7----|--3----------------5----L--7--|--L----7----x--5-----x--|
----------5--L--5--5----|--3----------------3----L--5--|--L----5----------------|
------------------------|--1---------------------------|------------------------|


  Q    E  E  E  E  Q       W                Q    E  E     W                   W                 
------------------------|------------------------------|-------------------|-------------------|
--6---------------------|------------------------------|-------------------|-------------------|
--7-------5--L--7--7----|-------------------5----L--7--|--L----------------|--L----------------|
--7-------5--L--7--7----|--3----------------5----L--7--|--L----------------|--L----------------|
----------5--L--5--5----|--3----------------3----L--5--|--L----------------|--L----------------|
------------------------|--1---------------------------|-------------------|-------------------|


  W                   W                   W                   W                   W                 
-------------------|-------------------|-------------------|-------------------|-------------------|
-------------------|-------------------|-------------------|-------------------|-------------------|
-------------------|-------------------|-------------------|-------------------|-------------------|
-------------------|-------------------|-------------------|-------------------|-------------------|
-------------------|-------------------|-------------------|-------------------|-------------------|
-------------------|-------------------|-------------------|-------------------|-------------------|


  W                   W                   W                   W                   W                 
-------------------|-------------------|-------------------|-------------------|-------------------|
-------------------|-------------------|-------------------|-------------------|-------------------|
-------------------|-------------------|-------------------|-------------------|-------------------|
-------------------|-------------------|-------------------|-------------------|-------------------|
-------------------|-------------------|-------------------|-------------------|-------------------|
-------------------|-------------------|-------------------|-------------------|-------------------|


  W                   W                   W                   W                   W                 
-------------------|-------------------|-------------------|-------------------|-------------------|
-------------------|-------------------|-------------------|-------------------|-------------------|
-------------------|-------------------|-------------------|-------------------|-------------------|
-------------------|-------------------|-------------------|-------------------|-------------------|
-------------------|-------------------|-------------------|-------------------|-------------------|
-------------------|-------------------|-------------------|-------------------|-------------------|


  W                   W                   W                   W                   W                 
-------------------|-------------------|-------------------|-------------------|-------------------|
-------------------|-------------------|-------------------|-------------------|-------------------|
-------------------|-------------------|-------------------|-------------------|-------------------|
-------------------|-------------------|-------------------|-------------------|-------------------|
-------------------|-------------------|-------------------|-------------------|-------------------|
-------------------|-------------------|-------------------|-------------------|-------------------|


  W                   W                   W                   W                 
-------------------|-------------------|-------------------|-------------------|
-------------------|-------------------|-------------------|-------------------|
-------------------|-------------------|-------------------|-------------------|
-------------------|-------------------|-------------------|-------------------|
-------------------|-------------------|-------------------|-------------------|
-------------------|-------------------|-------------------|-------------------|


  W                Q    E  E     Q    Q    E  E  E  E     Q    E  E  E  E  Q     
------------------------------|------------------------|------------------------|
------------------------------|------------------------|--6---------------------|
-------------------5----L--7--|--L----7----x--5-----x--|--7-------5--L--7--7----|
--3----------------5----L--7--|--L----7----x--5-----x--|--7-------5--L--7--7----|
--3----------------3----L--5--|--L----5----------------|----------5--L--5--5----|
--1---------------------------|------------------------|------------------------|


  W                Q    E  E     Q    Q    E  E  E  E     Q    E  E  E  E  Q     
------------------------------|------------------------|------------------------|
------------------------------|------------------------|--6---------------------|
-------------------5----L--7--|--L----7----x--5-----x--|--7-------5--L--7--7----|
--3----------------5----L--7--|--L----7----x--5-----x--|--7-------5--L--7--7----|
--3----------------3----L--5--|--L----5----------------|----------5--L--5--5----|
--1---------------------------|------------------------|------------------------|


  W                Q    E  E     Q    Q    E  E  E  E     Q    E  E  E  E  Q     
------------------------------|------------------------|------------------------|
------------------------------|------------------------|--6---------------------|
-------------------5----L--7--|--L----7----x--5-----x--|--7-------5--L--7--7----|
--3----------------5----L--7--|--L----7----x--5-----x--|--7-------5--L--7--7----|
--3----------------3----L--5--|--L----5----------------|----------5--L--5--5----|
--1---------------------------|------------------------|------------------------|


                    PM                      PM                                             
  Q    E  E  Q.     E     Q    E  E  Q.     E     W                   Q    Q    Q    Q     
-----------------------|-----------------------|-------------------|----------------------|
-----------------------|-----------------------|-------------------|----------------------|
-----------------------|----------5--L---------|--7----------------|--7----7----7----7----|
--5----x--7--L---------|--8-------5--L---------|--7----------------|--7----7----7----7----|
--5----x--7--L---------|--8-------3--L------0--|--5----------------|--5----7----5----7----|
--3----x--5--L------5--|--6--------------------|-------------------|----------------------|


  PM PM    PM PM PM PM PM    PM PM    PM PM PM PM PM    PM PM    PM PM PM PM PM  
  E  E  E  E  E  E  E  E     E  E  E  E  E  E  E  E     E  E  E  E  E  E  E  E   
--------------------------|--------------------------|--------------------------|
--------------------------|--------------------------|--------------------------|
--------------------------|--------------------------|--------------------------|
--------------------------|--------------------------|--------------------------|
--------------------------|--------------------------|--------------------------|
--3--3-----3--3--3--5--3--|--3--3-----3--3--3--5--3--|--3--3-----3--3--3--5--3--|


  PM PM    PM PM PM PM PM    PM PM    PM PM PM PM PM    PM PM    PM PM PM PM PM  
  E  E  E  E  E  E  E  E     E  E  E  E  E  E  E  E     E  E  E  E  E  E  E  E   
--------------------------|--------------------------|--------------------------|
--------------------------|--------------------------|--------------------------|
--------------------------|--------------------------|--------------------------|
--------------------------|--------------------------|--------------------------|
--------------------------|--------------------------|--------------------------|
--3--3-----3--3--3--5--3--|--3--3-----3--3--3--5--3--|--3--3-----3--3--3--5--3--|


  PM PM    PM PM PM PM PM    PM PM    PM PM PM PM PM    PM PM    PM PM PM PM PM  
  E  E  E  E  E  E  E  E     E  E  E  E  E  E  E  E     E  E  E  E  E  E  E  E   
--------------------------|--------------------------|--------------------------|
--------------------------|--------------------------|--------------------------|
--------------------------|--------------------------|--------------------------|
--------------------------|--------------------------|--------------------------|
--------------------------|--------------------------|--------------------------|
--3--3-----3--3--3--5--3--|--3--3-----3--3--3--5--3--|--3--3-----3--3--3--5--3--|


  PM PM    PM PM PM PM PM    PM PM    PM PM PM PM PM    PM PM    PM PM PM PM PM  
  E  E  E  E  E  E  E  E     E  E  E  E  E  E  E  E     E  E  E  E  E  E  E  E   
--------------------------|--------------------------|--------------------------|
--------------------------|--------------------------|--------------------------|
--------------------------|--------------------------|--------------------------|
--------------------------|--------------------------|--------------------------|
--------------------------|--------------------------|--------------------------|
--3--3-----3--3--3--5--3--|--3--3-----3--3--3--5--3--|--3--3-----3--3--3--5--3--|


  PM PM    PM PM PM PM PM    PM PM    PM PM PM PM PM    PM PM    PM PM PM PM PM  
  E  E  E  E  E  E  E  E     E  E  E  E  E  E  E  E     E  E  E  E  E  E  E  E   
--------------------------|--------------------------|--------------------------|
--------------------------|--------------------------|--------------------------|
--------------------------|--------------------------|--------------------------|
--------------------------|--------------------------|--------------------------|
--------------------------|--------------------------|--------------------------|
--3--3-----3--3--3--5--3--|--3--3-----3--3--3--5--3--|--3--3-----3--3--3--5--3--|

   
  PM PM    PM PM PM PM PM                                         
  E  E  E  E  E  E  E  E                                          
----------------------------------------------------------------||
----------------------------------------------------------------||
----------------------------------------------------------------||
----------------------------------------------------------------||
----------------------------------------------------------------||
--3--3-----3--3--3--5--3----------------------------------------||



Lead

m.24
  Q     H.               H         H            W                 Q    E  E   
---------------------|-----------------------|-------------------------------|
-------15------------|---L-------------------|-------------------------------|
---------------------|-----------------------|-------------------------------|
---------------------|-----------------------|-------------------------------|
---------------------|------------17\--------|--------------------3----L--5--|
---------------------|-----------------------|--1~---------------------------|


                                      pick scrape                                 
                    NH                                                            
  Q    Q     Q      Q       H         H             W                 Q    E  E   
-------------------------|-----------------------|-------------------------------|
-------------------------|-----------------------|-------------------------------|
-------------------------|-----------------------|-------------------------------|
------------------<>5----|--L---------x\---------|-------------------------------|
--L----5~----------------|------------x\---------|--------------------3----L--5--|
-------------------------|-----------------------|--1~---------------------------|


  Q    Q     E  E  Q       W                   W                   W                 
------------------------|-------------------|-------------------|-------------------|
------------------------|-------------------|-------------------|-------------------|
------------------------|-------------------|-------------------|-------------------|
------------------------|-------------------|-------------------|-------------------|
--L----7~----L--8--L----|-------------------|-------------------|-------------------|
------------------------|-------------------|-------------------|-------------------|


  W                   W                   W                   W                   W                 
-------------------|-------------------|-------------------|-------------------|-------------------|
-------------------|-------------------|-------------------|-------------------|-------------------|
-------------------|-------------------|-------------------|-------------------|-------------------|
-------------------|-------------------|-------------------|-------------------|-------------------|
-------------------|-------------------|-------------------|-------------------|-------------------|
-------------------|-------------------|-------------------|-------------------|-------------------|


  W                   W                   W                   W                   W                 
-------------------|-------------------|-------------------|-------------------|-------------------|
-------------------|-------------------|-------------------|-------------------|-------------------|
-------------------|-------------------|-------------------|-------------------|-------------------|
-------------------|-------------------|-------------------|-------------------|-------------------|
-------------------|-------------------|-------------------|-------------------|-------------------|
-------------------|-------------------|-------------------|-------------------|-------------------|


  W                   W                   W                   W                   W                 
-------------------|-------------------|-------------------|-------------------|-------------------|
-------------------|-------------------|-------------------|-------------------|-------------------|
-------------------|-------------------|-------------------|-------------------|-------------------|
-------------------|-------------------|-------------------|-------------------|-------------------|
-------------------|-------------------|-------------------|-------------------|-------------------|
-------------------|-------------------|-------------------|-------------------|-------------------|


                                     pick scrape                                 
        \1/              \3/   \3/                                               
  Q     H.               Q     Q     H             W                 Q    E  E   
---------------------|--------------------------|-------------------------------|
-------15------------|---L-----L----------------|-------------------------------|
---------------------|--------------------------|-------------------------------|
---------------------|---------------x\---------|-------------------------------|
---------------------|---------------x\---------|--------------------3----L--5--|
---------------------|--------------------------|--1~---------------------------|


                                    pick scrape                                 
                  NH                                                            
  H        Q      Q       H         H             W                 Q    E  E   
-----------------------|-----------------------|-------------------------------|
-----------------------|-----------------------|-------------------------------|
-----------------------|-----------------------|-------------------------------|
----------------<>5----|--L---------x\---------|-------------------------------|
--L--------------------|------------x\---------|--------------------3----L--5--|
-----------------------|-----------------------|--1~---------------------------|


  Q    Q     E  E  Q       Q.     E  Q.     E     Q    E   E   H         
------------------------|----------------------|------------------------|
------------------------|----------------------|------------------------|
------------------------|----------------------|------------------------|
------------------------|--5------7--L------7--|--8----8--10---L--------|
--L----7~----L--8--L----|----------------------|------------------------|
------------------------|----------------------|------------------------|


                                                               pick scrape                     
   H         E     E   Q        W                    H         H             W                 
----------------------------|--------------------|------------------------|-------------------|
----------------------------|--------------------|------------------------|-------------------|
------------12br---L--10----|--12----------------|---L--------------------|-------------------|
--12------------------------|--------------------|-------------x\---------|-------------------|
----------------------------|--------------------|-------------x\---------|-------------------|
----------------------------|--------------------|------------------------|-------------------|


  \6                                      tr                                        
  W                   W                   W                       W                 
-------------------|-------------------|-----------------------|-------------------|
-------------------|-------------------|-----------------------|-------------------|
--0----------------|-------------------|--7(10)----------------|-------------------|
-------------------|-------------------|-----------------------|-------------------|
-------------------|-------------------|-----------------------|--6----------------|
-------------------|--3----------------|-----------------------|-------------------|


  \1/  \2/  \2/  \2/     \6                                                                
  Q    Q    Q    Q       W                   H.           E  E     H        E  E   Q       
----------------------|-------------------|---------------------|-------------------------|
----------------------|-------------------|------------------6--|--L--------L--6b--Lpb----|
----------------------|--0----------------|--L------------------|-------------------------|
----------------------|-------------------|---------------------|-------------------------|
--6----L----L----L----|-------------------|---------------------|-------------------------|
----------------------|-------------------|---------------------|-------------------------|


              |--3--|                                         
  H           E  E  E  E  E      Q    S S E   Q     S S S  S  
------------------------------|-------3-------------3--------|
--Lpb~-----------------3------|---------3-6b--L~------3-6p-3-|
-----------------3--5-----5b--|--L---------------------------|
--------------5---------------|------------------------------|
------------------------------|------------------------------|
------------------------------|------------------------------|


  |----5----|                                                                                     
  S  S S S  S E  S  S S  S S S Q         H.            E   E      E   E   E   E   E   E   E   E   
-----------------6p-3-----------------|-------------------13--|--15--13--15--13--15--13--15--13--|
--6p-3---3h-6---------6p-3---3--------|-----------------------|----------------------------------|
-------5-------------------5---5pb----|-----------------------|----------------------------------|
--------------------------------------|--5~-------------------|----------------------------------|
--------------------------------------|-----------------------|----------------------------------|
--------------------------------------|-----------------------|----------------------------------|


   H           E     E     S  E.       H         E   E   E   E   
--18b~---------Lpb--18pb---L-18b---|--18--------15------15--17--|
-----------------------------------|----------------18----------|
-----------------------------------|----------------------------|
-----------------------------------|----------------------------|
-----------------------------------|----------------------------|
-----------------------------------|----------------------------|


   Q      Q      E     E      Q        E   E   E   E   Q        E   E   
--17b----17b-----Lpb--17pbr---L----|--18--17--18--17--17pbr-----L--15--|
-----------------------------------|-----------------------------------|
-----------------------------------|-----------------------------------|
-----------------------------------|-----------------------------------|
-----------------------------------|-----------------------------------|
-----------------------------------|-----------------------------------|


                                              |---3---|                    |---3---|               
   E    E     Q       S  S  S  S   E   E      S   S   S  S   S  E   S   S  S    S  S  S  S  Q      
---------------------15-------------------|---------------------------------------------18--Lb----|
--18b---Lpb---Lpb-------18-15---------15--|--15h-18p-15-----15-15--18p-15-------------------------|
------------------------------17b--L------|-------------17b---------------17br--L-15-15-----------|
------------------------------------------|-------------------------------------------------------|
------------------------------------------|-------------------------------------------------------|
------------------------------------------|-------------------------------------------------------|


   E    E    H         E   E      Q      Q       E     E   Q        W                Q    E  E   
--18b--18~---L--------15--18--|---Lb----18pb----18br--18--18----|--17---------------------------|
------------------------------|---------------------------------|-------------------------------|
------------------------------|---------------------------------|-------------------------------|
------------------------------|---------------------------------|-------------------------------|
------------------------------|---------------------------------|----------------------------5--|
------------------------------|---------------------------------|-------------------------------|


                                             T                                                 
  Q    Q    E  E  E    E      E   E   Q      Q        Q           W                Q.      E   
--------------------------|-----------------------------------|-------------------------------|
--------------------------|-----------------------------------|-------------------------------|
--------------------------|--10--12---Lb----15pb~----12pbr----|--10---------------------------|
---------------------/12--|-----------------------------------|-------------------------------|
--L----7----L--8--L-------|-----------------------------------|-------------------------------|
--------------------------|-----------------------------------|--------------------8------10--|


   Q     Q        E   E    Q         E   E   Q      Q      E    E   
---------------------13b---L~----|--13--10-------------------------|
--------13pbr-----L--------------|----------13b----13b----13b--13--|
---------------------------------|---------------------------------|
---------------------------------|---------------------------------|
---------------------------------|---------------------------------|
---L-----------------------------|---------------------------------|


   W                 Q    E  E     W                   W                   W                 
--------------------------------|-------------------|-------------------|-------------------|
---L~---------------------------|-------------------|-------------------|-------------------|
--------------------------------|-------------------|-------------------|-------------------|
--------------------------------|-------------------|-------------------|-------------------|
---------------------3----L--5--|--L----------------|--L----------------|-------------------|
--------------------------------|-------------------|-------------------|-------------------|


  W                   W                   W                   W                   W                 
-------------------|-------------------|-------------------|-------------------|-------------------|
-------------------|-------------------|-------------------|-------------------|-------------------|
-------------------|-------------------|-------------------|-------------------|-------------------|
-------------------|-------------------|-------------------|-------------------|-------------------|
-------------------|-------------------|-------------------|-------------------|-------------------|
-------------------|-------------------|-------------------|-------------------|-------------------|


  W                   W                   W                   W                   W                 
-------------------|-------------------|-------------------|-------------------|-------------------|
-------------------|-------------------|-------------------|-------------------|-------------------|
-------------------|-------------------|-------------------|-------------------|-------------------|
-------------------|-------------------|-------------------|-------------------|-------------------|
-------------------|-------------------|-------------------|-------------------|-------------------|
-------------------|-------------------|-------------------|-------------------|-------------------|


  W                   W                   W                   H        Q    E  E    
-------------------|-------------------|-------------------|-----------------------|
-------------------|-------------------|-------------------|-----------------------|
-------------------|-------------------|-------------------|-----------------------|
-------------------|-------------------|-------------------|-----------------------|
-------------------|-------------------|-------------------|-----------------------|
-------------------|-------------------|-------------------|-------------------8h--|


   E  E    E   E   E   E     E   E      Q    Q    Q    E   E        H         H         
------------------------------------|---------------------------|----------------------|
------------------------------------|---------------------13br--|---L~-----------------|
------------------10--12br---L--10--|---L-----------------------|----------------------|
--------------10--------------------|---------------------------|----------------------|
------8--/12------------------------|---------------------------|----------------------|
--10--------------------------------|---------------------------|----------------------|


  W                   E   E    Q      E   E   Q         Q.      E    H            W                 
-------------------|--------------------------------|--------------------------|-------------------|
-------------------|-----13b---L~----13--10---------|--------------------------|-------------------|
-------------------|-------------------------12b----|--12-------L~---L~--------|-------------------|
-------------------|--------------------------------|--------------------------|-------------------|
-------------------|--------------------------------|--------------------------|-------------------|
-------------------|--------------------------------|--------------------------|-------------------|


                      \6                                                                       
  W                   W                   W                 Q    E  E     H        Q     Q     
-------------------|-------------------|-------------------------------|----------------------|
-------------------|-------------------|-------------------------------|----------------15----|
-------------------|--7----------------|-------------------------------|----------------------|
-------------------|-------------------|-------------------------------|----------------------|
-------------------|-------------------|--------------------3----L--5--|--L-------------------|
-------------------|-------------------|--1~---------------------------|----------------------|


              pick scrape                                                             
   H          H             W                 Q    E  E     Q    Q     E  E  E    E   
-------------------------|-------------------------------|---------------------------|
---L~--------------------|-------------------------------|---------------------------|
-------------------------|-------------------------------|---------------------------|
--------------x\---------|-------------------------------|----------------------/12--|
--------------x\---------|--------------------3----L--5--|--L----7~----L--8--L-------|
-------------------------|--1~---------------------------|---------------------------|


                  T                                                                              
   E   E   Q      Q        Q           W                 Q    E  E     Q    Q     E  E  E    E   
-----------------------------------|--------------------------------|---------------------------|
-----------------------------------|--------------------------------|---------------------------|
--10--12---Lb----15pb~----12pbr----|--10~---------------------------|---------------------------|
-----------------------------------|--------------------------------|----------------------/12--|
-----------------------------------|---------------------3----L--5--|--L----7~----L--8--L-------|
-----------------------------------|--------------------------------|---------------------------|


   E   E   Q      E     E   E   E     Q.     E  H           Q    E   E   H         
-----------------------------------|---------------------|------------------------|
-----------------------------------|---------------------|------------------------|
--10--12---Lb----12br---L--10------|---------------------|------------------------|
-------------------------------12--|--5------7--L--------|--8----8--10---L--------|
-----------------------------------|---------------------|------------------------|
-----------------------------------|---------------------|------------------------|


   \1/   \1/   \1/   \1/      \1/   \1/   \1/   \1/                                             
   Q     Q     Q     Q        Q     Q     Q     Q       W                   H.           E  E   
--------------------------|--------------------------|-------------------|---------------------|
--------------------------|--------------------------|-------------------|------------------6--|
--------------------------|--------------------------|--0----------------|--L------------L-----|
--12-----L-----L-----L----|---L-----L-----L-----L----|-------------------|---------------------|
--------------------------|--------------------------|-------------------|---------------------|
--------------------------|--------------------------|-------------------|---------------------|


  H        E  E   Q         H          S S E  Q        E   S S E  E    E  E  S S  S  S  
-------------------------|--------------------------|--------3-L----------3--3---------|
--L--------L--6b--Lpb----|--Lpb------------3--------|------3------6b~--L-------6p-3h-6-|
-------------------------|-------------3-5----5b----|--L~------------------------------|
-------------------------|--------------------------|----------------------------------|
-------------------------|--------------------------|----------------------------------|
-------------------------|--------------------------|----------------------------------|


                 |-3-| |-3|     |--3--|    |-3| |3|  |--3-|                    
  S S S S E  S S S S S E  S E   S  S  S    E  S S E  S  S S  E  S S S S Q      
-------------3--------------------------|-------------------------------------|
----3-6-3----3-6-3---3-6--3-----3h-6p-3-|-------------------------------------|
--5-------5--------5--------5b----------|--5--5-3----3h-5-3h-5----------------|
----------------------------------------|---------5-------------3-------------|
----------------------------------------|-------------------------5-4-3-------|
----------------------------------------|-------------------------------6\----|


  \1/     \5                                                                                
  Q    E  E  Q.      E      Q     Q      E   E    S    E.       H           E   E   E   E   
------------------------|-----------------------------------|------------------------------|
--------------------13--|---L----13~-----L------------------|------------------------------|
--------------------12--|---L----12~-----L--15b---Lpb-15b---|--15b~--------12------12--14--|
--0----L----------------|-----------------------------------|------------------15----------|
----------0--L----------|-----------------------------------|------------------------------|
------------------------|-----------------------------------|------------------------------|


                |---3---|   |-----5-----|           |--3--|                            
   Q.       E   E   E   E   S  S  S  S  S     S  S  S  S  S  Q.        E   S  S  S  S  
------------------------------------------|-------------------------------------------|
------------------------------------------|-------------------------------------------|
--14b------14--12--15--12--12-10----10----|--10----------10-12~-----------15----15-17-|
---------------------------------12----12-|-----12-10-12-------------/17-----17-------|
------------------------------------------|-------------------------------------------|
------------------------------------------|-------------------------------------------|


                                    |---3--|  |---3--|  
   E    S  S  E   S  S  S  S  S  S  S   S  S  S   S  S  
-------------------------------------------------------|
-------15-15-15-----15-15-18----15-18p-15----18p-15----|
--17b------------17----------17-----------17--------17-|
-------------------------------------------------------|
-------------------------------------------------------|
-------------------------------------------------------|


                              |--3--|  |---3--|  |---3--|  
   E    S  S   E   E    S  S  S  S  S  S   S  S  S   S  S  
----------------------------------------------------------|
-------15-----15-------15-18-15----15-18p-15----18p-15----|
--17b-----17b-----17b-----------17-----------17--------17-|
----------------------------------------------------------|
----------------------------------------------------------|
----------------------------------------------------------|


               |---3--|  |---3--|                      
   S  S  S  S  S   S  S  S   S  S  S  S  S  S  E   E   
--18-18-15----18p-15----18p-15-------------20-15------|
-----------15--------15--------15-15----15------------|
-------------------------------------17-----------15--|
--------------------------------------------------15--|
------------------------------------------------------|
------------------------------------------------------|


 
                          |---3---|                                                          
   S  S  S  S  E   S   S  S   S   S  S   S  S   S  E                                         
-----------18-15---------------------------------------------------------------------------||
--15----15--------18p-15-15h-18p-15-----15-----15-18---------------------------------------||
-----17-----------------------------17b----17b---------------------------------------------||
-------------------------------------------------------------------------------------------||
-------------------------------------------------------------------------------------------||
-------------------------------------------------------------------------------------------||




Duration Legend
---------------
W - whole
H - half
Q - quarter
E - 8th
S - 16th
T - 32nd
X - 64th
. - note dotted
|-n-|  - n-tuplets


Tablature Legend
----------------
L - tied note
x - dead note
g - grace note
(n) - ghost note
> - accentuded note
NH - natural harmonic
AH - artificial harmonic
TH - tapped harmonic
SH - semi harmonic
PH - pitch harmonic
h - hammer on
p - pull off
b - bend
br - bendRelease
pb - preBend
pbr - preBendRelease
brb - bendReleaseBend
\n/ - tremolo bar dip
\n - tremolo bar dive
-/n - tremolo bar Release up
/n\ - tremolo bar inverted dip
/n - tremolo bar return
-\n - tremolo bar Release down
S - shift slide
s - legato slide
/ -  slide into from below or out of upwards
\ -  slide into from above or out of downwards
~ - vibrato
W - wide vibrato
tr - trill
TP - tremolo picking
T - tapping
S - slap
P - pop
< - fade in
^ - brush up
v - brush down


Share "So You Ran" by Orion The Hunter


TOP 10 TABS

FRESH NEW TABS

ALL ARTISTS
artist wiki

mp3bear.com
song lyrics / contact us / privacy policy / tabspace toolbar
Copyright 2004 - 2014 TabSpace.com - All Rights Reserved.
song: so you ran guitar tabs by orion the hunter

0.042