:: Guitar & Bass Tabs Make Home Page
A B C D E F G H I J K L M N O P Q R S T U V W X Y Z #

  for    

On TABSPACE
Info About This Tab
Artist: Edwin Mccain
Tab Type: Guitar
Rate This Tab!
Tabbed by:Jon Carter
Email:jonhesive2@hotmail.com

Main Chords used:

|x54050|
|02200x|
|x30030|
|3x0033|

|x320xx|
|x54030|
|x0201x|

|x3203x|
|332033|

|13301x|




Tuning: Standard

						      MAIN RIFF:
e|----0-------------------------------3-*---------------------------------------3--*-|
B|-----0-----------0------3------3-----3*-------5------------0------3------3-----3-*-|
G|-----------0------0----0---3----0-----*------0--0----0------0----0---3----0------*-|
D|-(0)--------2---------2---2-------0---*-----4--4------2---------2---2-------0----*-|
A|---------------2----(3)---------------*----5-------------2-----3-----------------*-|
E|--------(0)------------------(3)------*-----------0--------------------3---------*-|
                                          ^Repeat thru verse: fingerpick/strum. Mix it up.



			    | (throw that in there when you feel)
e|---------0----------------|-0---|---------------------|
B|---------3-----1----1~----|--3--|---------------------|
G|-----0---0-----0----0~----|---0-|---------------------|
D|-----2---4-----2----2~--------------------------------|
A|-----3---5-----0--------------------------------------|
E|------------------------------------------------------|
  She said....              

e|-----------------(0)---*-------------------------------3~--|
B|------------------3----*-----------------------3-------3~--|
G|-----0------------0----*--------0--------------0-------0~--|
D|-----2------------4----*--------2--------------2-------2~--|
A|-----3------------5----*--------3--------------3-------3~--|
E|-----------------------*-------------------------------3~--|
  The words are all gone..      Its not too late to say...
  The times been to long..


	**Then Back to Verse**



e|---------0--------------------------------------3------------------------|
B|---------5---------------------1----------------3------------------------|
G|---------0--------0------------0----------------0------------------------|
D|---------4--------2------------3----------------0------------------------|
A|---------5--------2------------3----------------x------------------------|
E|------------------0------------1----------------3------------------------|
  Like a stone in a stream, like  smoothes    on  ridges


e|---------0-----------------------------3\2--0----0--0--2-3-2-------------|
B|---------5------------------------3------------3----3--3-3-3-------------|
G|---------0-------------0----------0-----------------0--0-0-0-------------|
D|---------4-------------2----------4--------------------------------------|
A|---------5-------------2----------5--------------------------------------|
E|-----------------------0-------------------------------------------------|
   Till we barely make a ripple anymore

e|---------0---------------------------------------3-----------------------|
B|---------5----------------------1----------------3-----------------------|
G|---------0---------0------------0----------------0-----------------------|
D|---------4---------2------------3----------------0-----------------------|
A|---------5---------2------------3----------------x-----------------------|
E|-------------------0------------1----------------3-----------------------|
  Those times in our lives..     live  with   me  forever..

e|---------0--------------------------3--2--3---3--------------------------|
B|---------5--------------------------3--3--3---3--------------------------|
G|---------0-------------0------------0--0--0---0--------------------------|
D|---------4-------------2------------x--x--x---0--------------------------|
A|---------5-------------2------------3--3--3---x--------------------------|
E|-----------------------0----------------------3--------------------------|
  But were not the same people that we were before
	




	**From here you just follow the song with what you know til the end**





Ending 
e|--------------------3~------------------------------|
B|--------3---3---3---3~------------------------------|
G|--------0---0---0---0~------------------------------|
D|-----x--------------0~------------------------------|
A|-----3----2---0-----x~------------------------------|
E|--------------------3~------------------------------|




| /  slide up
| \  slide down
| h  hammer-on
| p  pull-off
| ~  vibrato
| +  harmonic
| x  Mute note
===============================================================================


Share "Sorry To A Friend" by Edwin Mccain


TOP 10 TABS

FRESH NEW TABS

ALL ARTISTS
artist wiki

mp3bear.com
song lyrics / contact us / privacy policy / tabspace toolbar
Copyright 2004 - 2014 TabSpace.com - All Rights Reserved.
song: sorry to a friend guitar tabs by edwin mccain

0.008