:: Guitar & Bass Tabs Make Home Page
A B C D E F G H I J K L M N O P Q R S T U V W X Y Z #

  for    

On TABSPACE
Info About This Tab
Artist: Testament
Tab Type: Bass
Difficulty: intermediate
Rate This Tab!
|--G--|    h = hammer on
|--D--|    p = pull of
|--A--|    / = slide
|--E--|


Intro

|---------16----15--------12---11-------9--7-------------|
|------14----14---------9----9--------9------7h9-5h7-5p4-|
|---14---------------10-------------7--------------------|
|-0----------------0--------------0----------------------|


|---------16----15--------12---11---9---9---7-------|
|------14----14---------9----9--------9---9---7-----|
|---14---------------10-------------------------9-7-|
|-0----------------0--------------0-----------------|


Guitar intro
|---------------------------------------|
|---------------------------------------|
|---------------------------------------|
|-0-----3---2---0-----3-3---2-2-2-2-2-2-|


Bringe 1

|----------------------------------------------|
|----------------------------------------------|
|-------13-12-------10-9-------6-7---5---3---2-|
|-0-0-0-------0-0-0------0-0-0-----7---5---3---|


|----------------------------------------------|
|----------------------------------------------|
|-------13-12-------10-9-------6-7-------------|
|-0-0-0-------0-0-0------0-0-0-----0-3-2-5-3-5-|


|----------------------------------------------|
|----------------------------------------------|
|-------13-12-------10-9-------6-7---5---3---2-|
|-0-0-0-------0-0-0------0-0-0-----7---5---3---|


|----------------------------------------------|
|----------------------------------------------|
|-------13-12-------10-9-------6-7-----------3-|
|-0-0-0-------0-0-0------0-0-0-----0-3-2-5-3---|


|-----------------------------------|
|-----------------------------------|
|-1-1-1-1-1-1-1-1-1-1-1-------------|
|-----------------------0------0/12-|


Brindge 2

|-----------------------------------------------------|
|-----------------------------------------------------|
|---------------------------4-5--------------5-4--3---|
|-0-0-0-3--5--3--0-0-0-3-6-------0-0-0-3--6---------6-|


|---------------------------------------------------------------|
|---------------------------------------------------------------|
|---------------------------4-5--------------5-4--3-----------5-|
|-0-0-0-3--5--3--0-0-0-3-6-------0-0-0-3--6---------6---0-0-0---|


Verse (same as bridge 2)


Chorus 1

|----------------------------------------------|
|----------------------------------------------|
|-6-7--------------------------1---1-----0---0-|
|-----0-0-0-6-5--0-0-0-2-3---0---0---0-3---0---|


|----------------------------------------------|
|----------------------------------------------|
|-6-7------------------------4-------4-6-7-4---|
|-----0-0-0-6-5--0-0-0-2-3-3---3---6---------6-|


|----------------------------------------------|
|----------------------------------------------|
|-6-7--------------------------1---1-----0---0-|
|-----0-0-0-6-5--0-0-0-2-3---0---0---0-3---0---|


|----------------------------------------------|
|----------------------------------------------|
|-6-7------------------------------------------|
|-----0-0-0-6-5--0-0-0-2-3-3-3-3-3-3-3-3-3-3-3-|


Bridge 3 (changes in the bridge´s 1 end)

|----------------------------------------------|
|----------------------------------------------|
|-------13-12-------10-9-------6-7---5---3---2-|
|-0-0-0-------0-0-0------0-0-0-----7---5---3---|


|----------------------------------------------|
|----------------------------------------------|
|-------13-12-------10-9-------6-7-------------|
|-0-0-0-------0-0-0------0-0-0-----0-3-2-5-3-5-|


|----------------------------------------------|
|----------------------------------------------|
|-------13-12-------10-9-------6-7---5---3---2-|
|-0-0-0-------0-0-0------0-0-0-----7---5---3---|


* |--------------------------------------| *
* |--------------------------------------| *
* |-------13-12-------10-9-7-------1-0---| *
* |-0-0-0-------0-0-0------------------3-| *


Verse 2 (same as verse 1)


Chorus 2 (same as coro 1, only add sthis before the guitar solo)

|-----------------------------------|
|-----------------------------------|
|-----------------------------1-0---|
|-3-3-3-3-3-3-3-5-5-5-5-5-5-5-----3-|


Guitar solo

|--------------------------------------------------------------------------|
|--------------------------------------------------------------------------|
|---------------1-----------------------------------1--2-2-2-2-2-2-2-2-2-2-|
|-0---0-0-0--3-----0---0-0-0--0-0-0---0---0-0-0--3-------------------------|


|-------------------------------------------------------------------------|
|--------------------------------------5---------6---------7--------------|
|---------------------3-3-3-3-3-3-3-3----0---0-0---0---0-0---0---0-0------|
|-0---0-0-0--3--2--3-------------------------------------------------3--2-|


|--------------------------------------------------------------------------|
|--------------------------------------------------------------------------|
|---------------1-----------------------------------1--2-2-2-2-2-2-2-2-2-2-|
|-0---0-0-0--3-----0---0-0-0--0-0-0---0---0-0-0--3-------------------------|


|--------------------------------------------------------------------------|
|--------------------------------------5---------6---------7---------------|
|---------------------3-3-3-3-3-3-3-3----0---0-0---0---0-0---0---0-0-------|
|-0---0-0-0--3--2--3-------------------------------------------------3--2--|


|-------|
|-------|
|-0-----|
|---3-2-|


|------------------------------------------|
|------------------------------------------|
|-1-1-1-1-1-1-1-1-1-1-1-1-1-1-1------------|
|-------------------------------0---0/12/0-|


Verse 3 (same as verse 1)

Chorus 3 (same as chorus 1)

End (same as bridge 3)

Well, this is my first tab so may contain errors, but I guess it could be useful 
rate and correct)


Share "Souls Of Black" by Testament


TOP 10 TABS

FRESH NEW TABS

ALL ARTISTS
artist wiki

mp3bear.com
TabSpace.com / contact us / privacy policy / tabspace toolbar
Copyright © 2004 - 2016 TabSpace.com - All Rights Reserved.
song: souls of black bass tabs by testament

0.003