:: Guitar & Bass Tabs Make Home Page
A B C D E F G H I J K L M N O P Q R S T U V W X Y Z #

  for    

On TABSPACE
Info About This Tab
Artist: Panda
Tab Type: Guitar
Difficulty: novice
Rate This Tab!
la cancion esta afina normal
cualquier duda,comentario,mentada de madre o lo que sea a panda_vetealaverga@hotmail.com

Intro:

Guitarra 1

e|---16--16--16--16---21--21--21--21---14--14--14--14--------------------|
B|-14--14--14--14---19--19--19--19---12--12--12--12---12--14-16-14-12-11-|
G|-----------------------------------------------------------------------|
D|-----------------------------------------------------------------------|
A|-----------------------------------------------------------------------|
E|-----------------------------------------------------------------------|

e|---16--16--16--16---21--21--21--21---14--14--14--14--12~~----------|
B|-14--14--14--14---19--19--19--19---12--12--12--12------------------|
G|-------------------------------------------------------------------|
D|-------------------------------------------------------------------|
A|-------------------------------------------------------------------|
E|-------------------------------------------------------------------|

Guitarra 2 (nadamas calculen el tiempo nadamas les pongo que acordes son)
E||------------------------------|-----------------------------|
B||------------------------------|-----------------------------|
G||-------6---------4------3----|--------6---------------------|
D||--6----6----4----4------3----|---6----6----4------2---------|
A||--6----4----4----2------1----|---6----4----4------2---------|
E||--4---------2----------------|---4---------2------0---------|

Verso: mas o menos calculen el ritmo ndamas pongo para que vean si son muchos o uno solo

E||--------------------------------------------------------------------------------|
B||--------------------------------------------------------------------------------|
G||--4-4-4-4--6-6-6-6-----------4-4-4-4----4-4-4-4--6-6-6-6-----------4-4-4-4-3-3--|
D||--4-4-4-4--6-6-6-6--4-4-4-4--4-4-4-4--4-4-4-4-4--6-6-6-6--4-4-4-4--4-4-4-4-3-3--|
A||--2-2-2-2--4-4-4-4--4-4-4-4--2-2-2-2--4-2-2-2-2--4-4-4-4--4-4-4-4--2-2-2-2-1-1--|
E||--------------------2-2-2-2-----------2-------------------2-2-2-2---------------|

E||------------------------------------------------------------------------------------|
B||------------------------------------------------------------------------------------|
G||-----------6-6-6-6-----------4-4-4-4--3-3-3-3---------6-6-6-6-----------------------|
D||--6-6-6-6--6-6-6-6--4-4-4-4--4-4-4-4--3-3-3-3-6-6-6-6--6-6-6-6---4-4-4-4---2-2-2-2--|
A||--6-6-6-6--4-4-4-4--4-4-4-4--2-2-2-2--1-1-1-1-6-6-6-6--4-4-4-4---4-4-4-4---2-2-2-2--|
E||--4-4-4-4-----------2-2-2-2-------------------4-4-4-4------------2-2-2-2---0-0-0-0--|

Coro: aquí igual calculen los tiempos ndamas voy a poner los acordes

E||----------------------|
B||----------------------|
G||-----------------4----|
D||--6----4----2----4----|X2
A||--6----4----2----2----|
E||--4----2----0---------|

E||--------------------------------------------------------------------------|
B||--------------------------------------------------------------------------|
G||--6----8----9----8------------------------6----8----9----8----4-----------|
D||--x----x----x----x------9----8----6-------x----x----x----x----x-----------|
A||--4----6----7----6------x----x----x-------4----6----7----6----2-----------|
E||------------------------7----6----4---------------------------------------|

Verso 2 : primero es puro pero aquí les dejo lo que toca el bajo y luego la guitarra toca esto
No se si sea asi o mas rasgeos es cuestion de oirla
E||--------------------------------------------------------------------------|
B||--------------------------------------------------------------------------|
G||-------x-x-x6-6-x-x-x--x-x-x4-4x-x-x3-3x-x-x----------6-6x-x-x------------|
D||--6-6-x-x-x6-6-x-x-x4-4x-x-x4-4x-x-x3-3x-x-x6-6x-x-x-x6-6x-x-x4-4x-x-x-2--|
A||--6-6-x-x-x4-4-x-x-x4-4x-x-x2-2x-x-x1-1x-x-x6-6x-x-x-x4-4x-x-x4-4x-x-x-2--|
E||--4-4-x-x-x-----x-x-x2-2x-x-x--x-x-x---x-x-x4-4x-x-x-x--------2-2x-x-x-0--|

Coro igual

Solo:
Guitarra 1

e|-------------------------------------------------|
B|11h12--14-16-14-12-11--9~--14--16-17-16--14-12~~-|
G|-------------------------------------------------|
D|-------------------------------------------------|
A|-------------------------------------------------|
E|-------------------------------------------------|

e|------------------------------------------------------|
B|11-12--14-16-14-12-11--9~--14--16-17-16-14-12-14h19~--|
G|------------------------------------------------------|
D|------------------------------------------------------|
A|------------------------------------------------------|
E|------------------------------------------------------|
 Guitarra 2 calculen rasgueo
E||--------------------------------------------------------------------------------|
B||--------------------------------------------------------------------------------|
G||--4-4-4-4--6-6-6-6-----------4-4-4-4----4-4-4-4--6-6-6-6-----------4-4-4-4-3-3--|
D||--4-4-4-4--6-6-6-6--4-4-4-4--4-4-4-4--4-4-4-4-4--6-6-6-6--4-4-4-4--4-4-4-4-3-3--|
A||--2-2-2-2--4-4-4-4--4-4-4-4--2-2-2-2--4-2-2-2-2--4-4-4-4--4-4-4-4--2-2-2-2-1-1--|
E||--------------------2-2-2-2-----------2-------------------2-2-2-2---------------|

Luego

E||-------------------------------------------------------------------------------------|
B||-------------------------------------------------------------------------------------|
G||-----------6-6-6-6-----------4-4-4-4--3-3-3-3-----------6-6-6-6----------------------|
D||--6-6-6-6--6-6-6-6--4-4-4-4--4-4-4-4--3-3-3-3--6-6-6-6--6-6-6-6---4-4-4-4---2-2-2-2--|
A||--6-6-6-6--4-4-4-4--4-4-4-4--2-2-2-2--1-1-1-1--6-6-6-6--4-4-4-4---4-4-4-4---2-2-2-2--|
E||--4-4-4-4-----------2-2-2-2--------------------4-4-4-4------------2-2-2-2---0-0-0-0--|

Luego coro (variación)
 aquí igual calculen los tiempos ndamas voy a poner los acordes

E||----------------------|
B||----------------------|
G||-----------------4----|
D||--6----4----2----4----|X2
A||--6----4----2----2----|
E||--4----2----0---------|

E||------------------------------------------|
B||------------------------------------------|
G||--6----8----9----8------------------------| X3
D||--x----x----x----x------9----8----6-------|
A||--4----6----7----6------x----x-----x------|
E||------------------------7----6----4-------|

E|-------------------------------|
B|-------------------------------|
G|-6----8----9----8----4---------|
D|-x----x----x----x----x---------|
A|-4----6----7----6----2---------|
E|-------------------------------|


Share "Soy Un Ganador" by Panda


TOP 10 TABS

FRESH NEW TABS

ALL ARTISTS
artist wiki

mp3bear.com
song lyrics / contact us / privacy policy / tabspace toolbar
Copyright © 2004 - 2014 TabSpace.com - All Rights Reserved.
song: soy un ganador guitar tabs by panda

0.082