:: Guitar & Bass Tabs Make Home Page
A B C D E F G H I J K L M N O P Q R S T U V W X Y Z #

  for    

On TABSPACE
Info About This Tab
Artist: 88 Fingers Louie
Tab Type: Guitar
Rate This Tab!
-----------------------------------------------------------------------------------
			       STATE - 88 Fingers Louie
-----------------------------------------------------------------------------------
Tabbed by: strungout777
Email: manuel_ramones4life@fmx.at 

Tuning: e B G D A E

Intro:
e|---------------------------------------------------------------|
B|---------------------------------------------------------------|
G|-----------------------------------------------------5555------|
D|-222222-222222-2-0-----222222-2-0-3-2-222222-2-0-----5555-3333-|
A|-222222-222222-----3-2-222222---------222222-----3-2-3333-3333-|
E|-000000-000000---------000000---------000000--------------1111-|
   xxxxxx xxxxxx         xxxxxx         xxxxxx

e|---------------------------------------------------------------------|
B|---------------------------------------------------------------------|
G|-----------------------------------------------------5555------------|
D|-222222-222222-2-0-----222222-2-0-3-2-222222-2-0-----5555-333-3-3-2~-|
A|-222222-222222-----3-2-222222---------222222-----3-2-3333-333-3-3-2~-|
E|-000000-000000---------000000---------000000--------------111-1-1-0~-|
   xxxxxx xxxxxx         xxxxxx         xxxxxx                x x x

Pre-Verse:
e|-----------|
B|-----------|
G|-5555------|
D|-5555-3333-|
A|-3333-3333-|
E|------1111-|

Verse1:
e|---------------------------------------------------|
B|---------------------------------------------------|
G|------9-7-5-4------9-7-10-9------9-7-5-4-5555------|
D|-2222-9-7-5-4-2222-9-7-10-9-2222-9-7-5-4-5555-3333-|
A|-2222-7-5-3-2-2222-7-5--8-7-2222-7-5-3-2-3333-3333-|
E|-0000---------0000----------0000--------------1111-|

e|----------------------------------------------------------|
B|----------------------------------------------------------|
G|------9-7-5-4------9-7-10-9------9-7-5-4-5555-------------|
D|-2222-9-7-5-4-2222-9-7-10-9-2222-9-7-5-4-5555-3333-2222-2-|
A|-2222-7-5-3-2-2222-7-5--8-7-2222-7-5-3-2-3333-3333-2222-2-|
E|-0000---------0000----------0000--------------1111-0000-0-|

Chorus1:
e|--------------------------------------------------------|
B|--------------------------------------------------------|
G|-4-5555--------4-7777--------4-5555--------4-777777-----|
D|-4-5555-5-2222-4-7777-5-2222-4-5555-5-2222-4-777777-3-3-|
A|-2-3333-5-2222-2-5555-5-2222-2-3333-5-2222-2-555555-3-3-|
E|--------3-0000--------3-0000--------3-0000----------1-1-|

Verse2:
e|---------------------------------------------------|
B|---------------------------------------------------|
G|------9-7-5-4------9-7-10-9------9-7-5-4-5555------|
D|-2222-9-7-5-4-2222-9-7-10-9-2222-9-7-5-4-5555-3333-|
A|-2222-7-5-3-2-2222-7-5--8-7-2222-7-5-3-2-3333-3333-|
E|-0000---------0000----------0000--------------1111-|

e|-----------------------------------------------------------|
B|-----------------------------------------------------------|
G|------9-7-5-4------9-7-10-9------9-7-5-4-5555--------------|
D|-2222-9-7-5-4-2222-9-7-10-9-2222-9-7-5-4-5555-3333-2222222-|
A|-2222-7-5-3-2-2222-7-5--8-7-2222-7-5-3-2-3333-3333-2222222-|
E|-0000---------0000----------0000--------------1111-0000000-|

Chorus2:
e|----------------------------------------------------------|
B|----------------------------------------------------------|
G|-4-5555--------4-7777--------4-5555--------4-777777-------|
D|-4-5555-5-2222-4-7777-5-2222-4-5555-5-2222-4-777777-3-3-2-|
A|-2-3333-5-2222-2-5555-5-2222-2-3333-5-2222-2-555555-3-3-2-|
E|--------3-0000--------3-0000--------3-0000----------1-1-0-|

Outro:
e|----------------------------------------------------------------|
B|----------------------------------------------------------------|
G|------------9999-1010-9-7-5555-77-5-4-9999-1010-9-7-5555-77-5-4-|
D|------------9999-1010-9-7-5555-77-5-4-9999-1010-9-7-5555-77-5-4-|
A|-5/7~--\3~--7777--8-8-7-5-3333-55-3-2-7777--8-8-7-5-3333-55-3-2-|
E|----------------------------------------------------------------|

e|--------------------------------------------------------------------------------|
B|--------------------------------------------------------------------------------|
G|-9-9999-1010-9-7-5-5555-77-5-4-9-9999-1010-9-7-5-5555-77-5-4--------------------|
D|-9-9999-1010-9-7-5-5555-77-5-4-9-9999-1010-9-7-5-5555-77-5-4-222222-2222-222222-|
A|-7-7777--8-8-7-5-3-3333-55-3-2-7-7777--8-8-7-5-3-3333-55-3-2-222222-2222-222222-|
E|-------------------------------------------------------------000000-0000-000000-|
     xxxx            xxxx          xxxx            xxxx        xxxxxx xxxx xxxxxx

| /  slide up
| \  slide down
| h  hammer-on
| p  pull-off
| ~  let ring
| +  harmonic
| x  Mute note
===================================================================================


Share "State" by 88 Fingers Louie


TOP 10 TABS

FRESH NEW TABS

ALL ARTISTS
artist wiki

mp3bear.com
song lyrics / contact us / privacy policy / tabspace toolbar
Copyright 2004 - 2014 TabSpace.com - All Rights Reserved.
song: state guitar tabs by 88 fingers louie

0.017