:: Guitar & Bass Tabs Make Home Page
A B C D E F G H I J K L M N O P Q R S T U V W X Y Z #

  for    

On TABSPACE
Info About This Tab
Artist: Tokio Hotel
Tab Type: Guitar
Difficulty: intermediate
Rate This Tab!
Stich Ins Glück/On The Edge
By Tokio Hotel
From the album Zimmer 483/Scream


INTRO

E|-------------------------------------------------------------------|
B|-------------------------------------------------------------------|
G|----------------------------------5-5-5-5-5-5----------------------|
D|-3-3----6-6----3--3-3(3)---6-6----5-5-5-5-5-5-6-6-6-6-6----5-6-7---|
A|-3-3----6-6----3--3-3(3)---6-6----3-3-3-3-3-3-6-6-6-6-6----5-6-7---|
E|-1-1----4-4----1--1-1(1)---4-4----------------4-4-4-4-4----3-4-5---|

VERSE

E|-------------------------------------------------------------------|
B|-------------------------------------------------------------------|
G|----------------------------------5-5-5-5-5-5----------------------|
D|-3-3----6-6----3--3-3(3)---6-6----5-5-5-5-5-5-6-6-6-6-6------------|
A|-3-3----6-6----3--3-3(3)---6-6----3-3-3-3-3-3-6-6-6-6-6------------|
E|-1-1----4-4----1--1-1(1)---4-4----------------4-4-4-4-4----0-1-2---| X 3

BRIDGE

E|-----------------------------|
B|-----------------------------|
G|-4-4-4-4-4-4-----------------|
D|-4-4-4-4-4-4-6-6-6-6-6-6-6---|
A|-2-2-2-2-2-2-6-6-6-6-6-6-6---|
E|-------------4-4-4-4-4-4-4---|X 2

CHORUS

D#|----------------------------------------|
A#|----------------------------------------|
F#|-1-11-----1-11-------88-8888-5-5555-888-|
C#|-2-22-2-2-2-22-2-222-88-8888-5-5555-888-|
G#|-2-22-3-3-2-22-3-333-66-6666-3-3333-666-|
D#|-0-00-3-3-0-00-3-333--------------------|

D#|---------------------------------------|
A#|---------------------------------------|
F#|-1-11-----1-11-------88-8888-5-555-555-|
C#|-2-22-2-2-2-22-2-222-88-8888-5-555-555-|
G#|-2-22-3-3-2-22-3-333-66-6666-3-333-333-|
D#|-0-00-3-3-0-00-3-333-------------------|

D#|--------------------------------------------------------------------|
A#|--------------------------------------------------------------------|
F#|-1-11-111----------88-8888-5-555-555-11-11-11-11-11-11-11-5-555-555-|
C#|-2-22-222-5-55-555-88-8888-5-555-555-11-11-11-11-11-11-11-5-555-555-|
G#|-2-22-222-5-55-555-66-6666-3-333-333--9--9--9--9--9--9--9-3-333-333-|
D#|-0-00-000-3-33-333--------------------------------------------------|


AFTER CHORUS-SOLO

E|----------------------------------------------|
B|----------------------------------------------|
G|----------------------------------------------|
D|----------------------------------------------|
A|--9-6-4-4-6-4-1-1--1-1-11--11-11-11-11-11-9---|
E|----------------------------------------------|

E|-----------|
B|-----------|
G|-----------|
D|---5-6-7---|
A|---5-6-7---|
E|---3-4-5---|

VERSE

BRIDGE

CHORUS

SOLO



Share "Stich Ins Gluck" by Tokio Hotel


TOP 10 TABS

FRESH NEW TABS

ALL ARTISTS
artist wiki

mp3bear.com
song lyrics / contact us / privacy policy / tabspace toolbar
Copyright © 2004 - 2014 TabSpace.com - All Rights Reserved.
song: stich ins gluck guitar tabs by tokio hotel

0.011