:: Guitar & Bass Tabs Make Home Page
A B C D E F G H I J K L M N O P Q R S T U V W X Y Z #

  for    

On TABSPACE
Info About This Tab
Artist: Tokio Hotel
Tab Type: Guitar
Difficulty: novice
Rate This Tab!
Tabbed by Lisa :D

Tune a half Step down

Intro
D#|-------------------------------------|
A#|-------------------------------------|
F#|-1-11-----1-11-------44-44-----------|
C#|-2-22-5-5-2-22-5-555-44-445-55-5-----|
G#|-2-22-5-5-2-22-5-555-22-225-55-5-567-|
D#|-0-00-3-3-0-00-3-333------3-33-3-----|

Verse
D#|-------------------------------------|
A#|-------------------------------------|
F#|-1-11-----1-11-------44-44-----------|
C#|-2-22-5-5-2-22-5-555-44-445-55-5-----|     3x
G#|-2-22-5-5-2-22-5-555-22-225-55-5-567-|
D#|-0-00-3-3-0-00-3-333------3-33-3-----|


Bridge
D#|-------------------------------------------------------|
A#|-------------------------------------------------------|
F#|-1-11------1-11------77-777-5-55-5555-77-777-5-5555555-|
C#|-2-22-5-5-2-22-5-555-77-777-5-55-5555-77-777-5-5555555-|
G#|-2-22-5-5-2-22-5-555-55-555-3-33-3333-55-555-3-3333333-|
D#|-0-00-3-3-0-00-3-333-----------------------------------|

Chorus
D#|----------------------------------------|
A#|----------------------------------------|
F#|-1-11-----1-11-------88-8888-5-5555-888-|
C#|-2-22-2-2-2-22-2-222-88-8888-5-5555-888-|
G#|-2-22-3-3-2-22-3-333-66-6666-3-3333-666-|
D#|-0-00-3-3-0-00-3-333--------------------|

D#|---------------------------------------|
A#|---------------------------------------|
F#|-1-11-----1-11-------88-8888-5-555-555-|
C#|-2-22-2-2-2-22-2-222-88-8888-5-555-555-|
G#|-2-22-3-3-2-22-3-333-66-6666-3-333-333-|
D#|-0-00-3-3-0-00-3-333-------------------|

D#|--------------------------------------------------------------------|
A#|--------------------------------------------------------------------|
F#|-1-11-111----------88-8888-5-555-555-11-11-11-11-11-11-11-5-555-555-|
C#|-2-22-222-5-55-555-88-8888-5-555-555-11-11-11-11-11-11-11-5-555-555-|
G#|-2-22-222-5-55-555-66-6666-3-333-333- 9- 9- 9- 9- 9- 9- 9-3-333-333-|
D#|-0-00-000-3-33-333--------------------------0-----------------------|

Solo
D#|-----------------------------------------------------------------|
A#|-----------------------------------------------------------------|
F#|-----------------------------------------------------------------|
C#|-----------------------------------------------------------------|
G#|-10-7-5-5-7-5-2-2-2-2-2-2/12-12-12-12-12-13-14-14-14-14-14-14-14-|
D#|-----------------------------------------------------------------|

Verse
D#|-------------------------------------|
A#|-------------------------------------|
F#|-1-11-----1-11-------44-44-----------|
C#|-2-22-5-5-2-22-5-555-44-445-55-5-----|     3x
G#|-2-22-5-5-2-22-5-555-22-225-55-5-567-|
D#|-0-00-3-3-0-00-3-333------3-33-3-----|

Bridge
D#|-------------------------------------------------------|
A#|-------------------------------------------------------|
F#|-1-11-----1-11-------77-777-5-55-5555-77-777-5-5555555-|
C#|-2-22-5-5-2-22-5-555-77-777-5-55-5555-77-777-5-5555555-|
G#|-2-22-5-5-2-22-5-555-55-555-3-33-3333-55-555-3-3333333-|
D#|-0-00-3-3-0-00-3-333-----------------------------------|

Chorus
D#|----------------------------------------|
A#|----------------------------------------|
F#|-1-11-----1-11-------88-8888-5-5555-888-|
C#|-2-22-2-2-2-22-2-222-88-8888-5-5555-888-|
G#|-2-22-3-3-2-22-3-333-66-6666-3-3333-666-|
D#|-0-00-3-3-0-00-3-333--------------------|

D#|---------------------------------------|
A#|---------------------------------------|
F#|-1-11-----1-11-------88-8888-5-555-555-|
C#|-2-22-2-2-2-22-2-222-88-8888-5-555-555-|
G#|-2-22-3-3-2-22-3-333-66-6666-3-333-333-|
D#|-0-00-3-3-0-00-3-333-------------------|

D#|--------------------------------------------------------------------|
A#|--------------------------------------------------------------------|
F#|-1-11-111----------88-8888-5-555-555-11-11-11-11-11-11-11-5-555-555-|
C#|-2-22-222-5-55-555-88-8888-5-555-555-11-11-11-11-11-11-11-5-555-555-|
G#|-2-22-222-5-55-555-66-6666-3-333-333- 9- 9- 9- 9- 9- 9- 9-3-333-333-|
D#|-0-00-000-3-33-333--------------------------0-----------------------|

Verse
D#|-------------------------------------|
A#|-------------------------------------|
F#|-1-11-----1-11-------44-44-----------|
C#|-2-22-5-5-2-22-5-555-44-445-55-5-----|
G#|-2-22-5-5-2-22-5-555-22-225-55-5-567-|
D#|-0-00-3-3-0-00-3-333------3-33-3-----|

D#|---------------------------------------------|
A#|---------------------------------------------|
F#|-1-11-----1-11-------44-44----------44444444-|
C#|-2-22-5-5-2-22-5-555-44-445-5555555-44444444-|
G#|-2-22-5-5-2-22-5-555-22-225-5555555-22222222-|
D#|-0-00-3-3-0-00-3-333------3-3333333----------|

D#|--------------------------------------------|
A#|--------------------------------------------|
F#|-1-----1--77-777-5-555-555-77-777-5-5555555-|
C#|-2--5--2--77-777-5-555-555-77-777-5-5555555-|
G#|-2--5--2--55-555-3-333-333-55-555-3-3333333-|
D#|-0--3--0------------------------------------|


Chorus
D#|----------------------------------------|
A#|----------------------------------------|
F#|-1-11-----1-11-------88-8888-5-5555-888-|
C#|-2-22-2-2-2-22-2-222-88-8888-5-5555-888-|
G#|-2-22-3-3-2-22-3-333-66-6666-3-3333-666-|
D#|-0-00-3-3-0-00-3-333--------------------|

D#|---------------------------------------|
A#|---------------------------------------|
F#|-1-11-----1-11-------88-8888-5-555-555-|
C#|-2-22-2-2-2-22-2-222-88-8888-5-555-555-|
G#|-2-22-3-3-2-22-3-333-66-6666-3-333-333-|
D#|-0-00-3-3-0-00-3-333-------------------|

D#|--------------------------------------------------------------------|
A#|--------------------------------------------------------------------|
F#|-1-11-111----------88-8888-5-555-555-11-11-11-11-11-11-11-5-555-555-|
C#|-2-22-222-5-55-555-88-8888-5-555-555-11-11-11-11-11-11-11-5-555-555-|
G#|-2-22-222-5-55-555-66-6666-3-333-333- 9- 9- 9- 9- 9- 9- 9-3-333-333-|
D#|-0-00-000-3-33-333--------------------------0-----------------------|

Solo
D#|-----------------------------------------------------------------|
A#|-----------------------------------------------------------------|
F#|-----------------------------------------------------------------|
C#|-----------------------------------------------------------------|
G#|-10-7-5-5-7-5-2-2-2-2-2-2/12-12-12-12-12-13-14-14-14-14-14-14-14-|
D#|-----------------------------------------------------------------|

D#|--------------------------------------------------------------|
A#|--------------------------------------------------------------|
F#|--------------------------------------------------------------|
C#|--------------------------------------------------------------|
G#|-10-7-5-5-7-5-2-2-2-2-2-2/12-12-12-12-12-10-10-10-10-10-10-10-|
D#|--------------------------------------------------------------|

D#|-----------------|
A#|-----------------|
F#|-1-----1---4-----|
C#|-2--5--2---4--2~-|
G#|-2--5--2---2--3~-|
D#|-0--3--0------3~-|


Thats it :)
If there are any mistakes in it, you can tell me :D
Hope you enjoy!


Share "Stich Ins Gluek Acoustic" by Tokio Hotel


TOP 10 TABS

FRESH NEW TABS

ALL ARTISTS
artist wiki

mp3bear.com
song lyrics / contact us / privacy policy / tabspace toolbar
Copyright 2004 - 2014 TabSpace.com - All Rights Reserved.
song: stich ins gluek acoustic guitar tabs by tokio hotel

0.003