:: Guitar & Bass Tabs Make Home Page
A B C D E F G H I J K L M N O P Q R S T U V W X Y Z #

  for    

On TABSPACE
Info About This Tab
Artist: 30 Seconds To Mars
Tab Type: Guitar
Rate This Tab!
Hi. I have seen that there really aren't any tabs for this, so I thought that I'd give 
the intro and my own chord layout for the chorus at the least. I'm not sure about the 
but I'm almost certain the intro is almost perfect.

Intro
Eb:-----------------------------------------|
Bb:-----------------------------------------|
Gb:-----------------------------------------|
Db:--------5-------7------------------------|
Ab:----3-3---3-5-5---------7-----5---5------|
Eb:------------------4-5-5---5-5---5--------|

Eb:-----------------------------------------|
Bb:-----------------------------------------|
Gb:-----------------------------------------|
Db:--------5-------7------------------------|
Ab:----3-3---3-5-5---------7-----5-7-5------|
Eb:------------------4-5-5---5-5------------|

Repeat this throughout the song when it's necessary. Also, you can slide between the Ab 
3 to 5.
----------------------------------------------------------------
Chord Sequence for Chorus

              C           Eb                  G            Ab
This is the story of my life. These are the lies I have created.

Again, I'm pretty sure that this part isn't totally right, but I think it still sounds great.
----------------------------------------------------------------
Thank you for reading! This was my first tab!
-Me...


Share "Story Intro" by 30 Seconds To Mars


TOP 10 TABS

FRESH NEW TABS

ALL ARTISTS
artist wiki

mp3bear.com
song lyrics / contact us / privacy policy / tabspace toolbar
Copyright 2004 - 2014 TabSpace.com - All Rights Reserved.
song: story intro guitar tabs by 30 seconds to mars

0.012