:: Guitar & Bass Tabs Make Home Page
A B C D E F G H I J K L M N O P Q R S T U V W X Y Z #

  for    

On TABSPACE
Info About This Tab
Artist: Hard-fi
Tab Type: Bass
Rate This Tab!
    ______HARD_FI_______SUBURBAN_KNIGHTS___________BY_PADDY______

Hard-Fi - Suburban Knights

Bass Standard Tuning (E-A-D-G)

Tabbed by Paddy O'Reilly (paddy1234)

Intro
G|--------------------------------------------|
D|--------------------------------------------|
A|------5-5-----9-9-------13-13-11------------|
E|--4-4-----7-7-----11-11----------12-11-7----| x3


G|--------------------------------------------|
D|--------------------------------------------|
A|------5-5-----9-9---------------------------|
E|--4-4-----7-7-----11------------------------| x1

Verse
G|----------------------------|
D|----------------------------|
A|------6-6-----6-6-----------|
E|--4-4-----7-7---------------| x3


G|-------------------------|
D|-------------------------|
A|-------------------------|
E|--4-4-4-4-7-7-7-7--------| x4

G|----------------------------|
D|----------------------------|
A|------6-6-----6-6-----------|
E|--4-4-----7-7---------------| x3

Chorus
G|--------------------------------------------|
D|--------------------------------------------|
A|------5-5-----9-9-------13-13-11------------|
E|--4-4-----7-7-----11-11----------12-11-7----| x4

Verse
G|----------------------------|
D|----------------------------|
A|------6-6-----6-6-----------|
E|--4-4-----7-7---------------| x8

G|-------------------------|
D|-------------------------|
A|-------------------------|
E|--4-4-4-4-7-7-7-7--------| x4

G|----------------------------|
D|----------------------------|
A|------6-6-----6-6-----------|
E|--4-4-----7-7---------------| x2

Chorus
G|--------------------------------------------|
D|--------------------------------------------|
A|------5-5-----9-9-------13-13-11------------|
E|--4-4-----7-7-----11-11----------12-11-7----| x4

Bridge
G|----------------------------|
D|----------------------------|
A|----------------------------|
E|--2~~~~~------4~~~~~--------| x2

well u can figure out da rest dis bores me... it all da same newa....
if u see ne probs r netin sur ya can let me no.... u prob will as dis is my first tab, 
happy bass-inating....


Share "Suburban Knights" by Hard-fi


TOP 10 TABS

FRESH NEW TABS

ALL ARTISTS
artist wiki

mp3bear.com
song lyrics / contact us / privacy policy / tabspace toolbar
Copyright 2004 - 2014 TabSpace.com - All Rights Reserved.
song: suburban knights bass tabs by hard-fi

0.011