:: Guitar & Bass Tabs Make Home Page
A B C D E F G H I J K L M N O P Q R S T U V W X Y Z #

  for    

On TABSPACE
Info About This Tab
Artist: Daphne Loves Derby
Tab Type: Guitar
Rate This Tab!
Sun  by: Daphne Loves Derby

Tab by: Aaron Meredith

Tuning: Open G down  step (Db-Ab-Db-Gb-Ab-db)

Ok, so this is the Open G down 1/2 step version of Sun by Daphne loves Derby. I'm not
that I am 100% sure its in that tuning. What I can tell you is that its not in standard
down 1/2 step. Give it a try before you rate. As far as tuning goes, here is something
help if anyone needs it. If you want to play along with the song you need to start by
your guitar down 1/2 step. Then you drop D tune it. Then tune the B string to the A
one octive up and tune the high E string to the D string one octive up. I don't usually drop
down 1/2 step but if you don't, you won't be able to play along with the song. Make 
as you see fit but this is the closest to how its played in my opion. At least
the notes played are there. Hope this helps out.


Verse:
e|--------0~-0----0~0~-----0~-0----0---------0~-0----0~0~-----0~-0----0-|
B|-----x--0~-0-x--0~0~--x--0~-0-x--0------x--0~-0-x--0~0~--x--0~-0-x--0-|
G|-----x--x--x-x--x-x~--x--x--x-x--x------x--x--x-x--x-x---x--x--x-x--x-|x3
D|-0~~-x--5~-5-x--5~5~--x--5~-5-x--5-0h7~-x--9~-9-x--9~9~--x--9~-9-x--9-|
A|-0~~-x--5~-5-x--5~5~--x--5~-5-x--5-0h7~-x--9~-9-x--9~9~--x--9~-9-x--9-|
E|-0h4----5~-5----5~5~-----5~-5----5-0h7~----9~-9----9~9~-----9~-9----9-|

e|---------0~--0-----0~0~------0~--0-----0--|
B|------x--0~--0--x--0~0~--x---0~--0--x--0--|
G|------x--x---x--x--x-x---x---x---x--x--x--|
D|-0~~--x--5~--5--x--5~5~--x---5~--5--x--5--|
A|-0~~--x--5~--5--x--5~5~--x---5~--5--x--5--|
E|-0h4-----5~--5-----5~5~------5~--5-----5--|

----------0~--0-----0~0~-----0~--0-----0-0-0-0---0~~~-----0~~~~~---|
-------x--0~--0--x--0~0~--x--0~--0--x--0-0-0-0---0~~~-----0~~~~~---|
-------x--x---x--x--x-x---x--x---x--x--x-x-x-x-0-x~~~-----x~~~~~---|
--0h7~-x--9~--9--x--9~9~--x--9~--9--x--9-9-9-9-0-2~~~-----5~~~~~---|
--0h7~-x--9~--9--x--9~9~--x--9~--9--x--9-9-9-9-0-2~~~-----5~~~~~---|
--0h7~----9~--9-----9~9~-----9~--9-----9-9-9-9---2~~~~~---5~~~~~---|

Chorus:
e|---------0~--0~-0-0-0-0~-0-0~--0~~-----0~--0-----0~0~------0~--0-----0---|
B|--x-x-x--0~--0~-0-0-0-0~-0-0~--0~~--x--0~--0--x--0~0~--x---0~--0--x--0---|
G|--x-x-x--2~--2~-2-2-2-2~-2-2~--2~~--x--x---x--x--x-x---x---x---x--x--x---|
D|--x-x-x--0~--0~-0-0-0-0~-0-0~--0~~--x--5~--5--x--5~5~--x---5~--5--x--5---|
A|--x-x-x--0~--0~-0-0-0-0~-0-0~--0~~--x--5~--5--x--5~5~--x---5~--5--x--5---|
E|---------0~--0~-0-0-0-0~-0-0~--0h4~----5~--5-----5~5~------5~--5-----5---|


----------0~--0-0~--0~0-----0~--0~0~-0~-----0~-0-0~-0-0-0-0~-0-0~-0-0----|
-------x--0~--0-0~--0~0-----0~--0~0~-0~--x--0~-0-0~-0-0-0-0~-0-0~-0-0-x--|
-------x--x---x-x~--x-x-----x---x-x--x---x--x--x-x--x-x-x-x--x-x--x-x-x--|
--0h7~-x--9~--9-9~--9~9--0--4~--4~4~-4~0-x--5~-5~5~-5-5-5-5~-5-5~-5-4-x--|
--0h7~-x--9~--9-9~--9~9--0--5~--5~5~-5~0-x--5~-5~5~-5-5-5-5~-5-5~-5-5-x--|
--0h7~----9~--9-9~--9~9--0--4~--4~4~-4~0----5~-5~5~-5-5-5-5~-5-5~-5-4----|


e|---0~--0~-0-0-0-0~-0-0~--0~~-----0~--0-----0~0~------0~--0-----0---|
B|---0~--0~-0-0-0-0~-0-0~--0~~--x--0~--0--x--0~0~--x---0~--0--x--0---|
G|---2~--2~-2-2-2-2~-2-2~--2~~--x--x---x--x--x-x---x---x---x--x--x---|
D|---0~--0~-0-0-0-0~-0-0~--0~~--x--5~--5--x--5~5~--x---5~--5--x--5---|
A|---0~--0~-0-0-0-0~-0-0~--0-x--x--5~--5--x--5~5~--x---5~--5--x--5---|
E|---0~--0~-0-0-0-0~-0-0~--0h4~----5~--5-----5~5~------5~--5-----5---|

----------0~--0-0~--0~0-----0~--0~0~-0~-----0~~~~~--|
-------x--0~--0-0~--0~0-----0~--0~0~-0~--x--0~~~~~--|
-------x--x---x-x~--x-x-----x---x-x--x---x--x-------|
--0h7~-x--9~--9-9~--9~9--0--4~--4~4~-4~0-x--5~~~~~--|
--0h7~-x--9~--9-9~--9~9--0--5~--5~5~-5~0-x--5~~~~~--|
--0h7~----9~--9-9~--9~9--0--4~--4~4~-4~0----5~~~~~--|

REPEAT VERSE:

REPEAT CHORUS:

Post Chorus:
e|------0--0~~~------0--0~-0---0~0~0----0~-0----0~0~0----0~-0----0~0~0----|
B|---x--0--0~~~----x-0--0~-0-x-0~0~0-x--0~-0-x--0~0~0-x--0~-0-x--0~0~0-x--|
G|---x--x--x-------x-x--x--x-x-x-x-x-x--x--x-x--x-x-x-x--x--x-x--x-x-x-x--|
D|---x--5--5~~~----x-7--9~-9-x-9~9~9-x--9~-9-x--9~9~9-x--2~-2-x--2~2~2-x--|
A|---x--5--5~~~----x-7--9~-9-x-9~9~9-x--9~-9-x--9~9~9-x--2~-2-x--2~2~2-x--|
E|------5--5~~~------7--9~-9---9~9~9----9~-9----9~9~9----2~-2----2~2~2----|

-0~0---0~0~0----0~-0----0~0~0---0~-0----0~0~0---0~-0---0~0~0---0~-0-x-0~0~~|
-0~0-x-0~0~0-x--0~-0-x--0~0~0-x-0~-0-x--0~0~7-x-0~-0-x-0~0~0-x-0~-0-x-0~0~~|
-x-x-x-x-x-x-x--x--x-x--x-x-x-x-x--x-x--x-x-x-x-x--x-x-x-x-x-x-x--x-x-x-x--|
-2~2-x-2~2~2-x--5~-5-x--5~5~5-x-5~-5-x--5~5~5-x-5~-5-x-5~5~5-x-5~-5-x-5~5h7|
-2~2-x-2~2~2-x--5~-5-x--5~5~5-x-5~-5-x--5~5~5-x-5~-5-x-5~5~5-x-5~-5-x-5~5h7|
-2~2---2~2~2----5~-5----5~5~5---5~-5----5~5~5---5~-5---5~5~5---5~-5-x-5~5h7|


Bridge:
e|---0~-0----0~0~0----0~-0----0~0~0----0~-0----0~0~0----|
B|---0~-0-x--0~0~0-x--0~-0-x--0~0~0-x--0~-0-x--0~0~0-x--|
G|---x--x-x--x-x-x-x--x--x-x--x-x-x-x--x--x-x--x-x-x-x--|
D|---9~-9-x--9~9~9-x--9~-9-x--9~9~9-x--2~-2-x--2~2~2-x--|
A|---9~-9-x--9~9~9-x--9~-9-x--9~9~9-x--2~-2-x--2~2~2-x--|
E|---9~-9----9~9~9----9~-9----9~9~9----2~-2----2~2~2----|

-0~0---0~0~0----0~-0----0~0~0---0~-0----0~0~0---0~-0---0~0~0---0~-0-x-0~0~~|
-0~0-x-0~0~0-x--0~-0-x--0~0~0-x-0~-0-x--0~0~7-x-0~-0-x-0~0~0-x-0~-0-x-0~0~~|
-x-x-x-x-x-x-x--x--x-x--x-x-x-x-x--x-x--x-x-x-x-x--x-x-x-x-x-x-x--x-x-x-x--|
-2~2-x-2~2~2-x--5~-5-x--5~5~5-x-5~-5-x--5~5~5-x-5~-5-x-5~5~5-x-5~-5-x-5~5h7|
-2~2-x-2~2~2-x--5~-5-x--5~5~5-x-5~-5-x--5~5~5-x-5~-5-x-5~5~5-x-5~-5-x-5~5h7|
-2~2---2~2~2----5~-5----5~5~5---5~-5----5~5~5---5~-5---5~5~5---5~-5-x-5~5h7|

e|---0~-0----0~0~0----0~-0----0~0~0----0~-0----0~0~0----|
B|---0~-0-x--0~0~0-x--0~-0-x--0~0~0-x--0~-0-x--0~0~0-x--|
G|---x--x-x--x-x-x-x--x--x-x--x-x-x-x--x--x-x--x-x-x-x--|
D|---9~-9-x--9~9~9-x--9~-9-x--9~9~9-x--2~-2-x--2~2~2-x--|
A|---9~-9-x--9~9~9-x--9~-9-x--9~9~9-x--2~-2-x--2~2~2-x--|
E|---9~-9----9~9~9----9~-9----9~9~9----2~-2----2~2~2----|


---0~-0----0~0~0----0~-0----0~0~0---0~-0----0~0~0----0~~~~~--|
---0~-0-x--0~0~0-x--0~-0-x--0~0~0-x-0~-0-x--0~0~7-x--0~~~~~--|
---x--x-x--x-x-x-x--x--x-x--x-x-x-x-x--x-x--x-x-x-x--x-------|
---2~-2-x--2~2~2-x--5~-5-x--5~5~5-x-5~-5-x--5~5~5-x--5~~~~~--|
---2~-2-x--2~2~2-x--5~-5-x--5~5~5-x-5~-5-x--5~5~5-x--5~~~~~--|
---2~-2----2~2~2----5~-5----5~5~5---5~-5----5~5~5----5~~~~~--|


REPEAT CHORUS:


Share "Sun Acoustic" by Daphne Loves Derby


TOP 10 TABS

FRESH NEW TABS

ALL ARTISTS
artist wiki

mp3bear.com
song lyrics / contact us / privacy policy / tabspace toolbar
Copyright 2004 - 2014 TabSpace.com - All Rights Reserved.
song: sun acoustic guitar tabs by daphne loves derby

0.02