:: Guitar & Bass Tabs Make Home Page
A B C D E F G H I J K L M N O P Q R S T U V W X Y Z #

  for    

On TABSPACE
Info About This Tab
Artist: Daphne Loves Derby
Tab Type: Guitar
Rate This Tab!
tune half step down

verse:

keep looping

eb|-----------x---x--x--x--x--x--x--x---x-x-------------x--x--x--x--x--x--x-x--x-x-|
Bb|-----------3---3--x--x--3--x--3--3---x-x-------------3--3--x--x--3--x--3-3--x-x-|
Gb|--2----2---2---2--x--x--2--x--2--2---x-x-------------2--2--x--x--2--x--2-2--x-x-|
Db|--0--0-0---0---0--x--x--0--x--0--0---x-x-------------0--0--x--x--0--x--0-0--x-x-|
Ab|--0--x-0---x---x--x--x--x--x--x--x---x-x---5/7--7----2--2--x--x--2--x--2-2--x-x-|
Eb|-----3-----3---3--x--x--3--x--3--3---x-x---3/5--5----x--x--x--x--x--x--x-x--x-x-|


Pre chorus:

eb|--------x-------|
Bb|--3-----3-------|
Gb|--2-----2-------|
Db|--0-----0-------|
Ab|--2-----x-------|
Eb|--------3-------|


Chorus:

I lined it up with the 1st and 2nd times he says "sleep well" play the 
chorus twice but stop at the G chord When he says "goodnight" 


            sleep well
eb|-x-x-x---x-x--x-x-x--x--x-x------------x--x--x--x--x--x--x--x--x--x----------2--2-2--2-2----|
Bb|-x-x-x---3-3--3-3-3--3--3-3------------3--3--x--3--3--x--3--3--x--3----------3--3-3--3-3----|
Gb|-x-x-x---2-2--2-2-2--2--2-2--2-----2---2--2--x--2--2--x--2--2--x--2----------2--2-2--2-2----|
Db|-x-x-x---0-0--0-0-0--0--0-0--0--0--0---0--0--x--0--0--x--0--0--x--0----------4--4-4--4-4----|
Ab|-x-x-x---0-0--0-0-0--0--0-0--0--x--0---x--x--x--x--x--x--x--x--x--x--5/7--7--2--2-2--2-2--0-|
Eb|-x-x-x---x-x--x-x-x--x--x-x-----3------3--3--x--3--3--x--3--3--x--3--3/5--5-----------------|


                                                    sleep well
eb|--x-x-x--x-------x--x-x--x--x-x--x-x--x----------x-x--|
Bb|--3-3-3--3-------3--3-3--3--3-x--3-3--3----------3-3--|
Gb|--2-2-2--2--2-2--2--2-2--2--2-x--2-2--2--2-2-2---2-2--|
Db|--0-0-0--0--0-0--0--0-0--0--0-x--0-0--0--0-0-0---0-0--|
Ab|--0-0-0--0--0-0--x--x-x--x--x-x--x-x--x--x-x-x---0-0--|
Eb|--2-2-2--2-------3--3-3--3--3-x--3-3--3--3-2-3---x-x--|



Bridge:

eb|--------x--x-x--x--x-x---x--x--x--x--x--x-----x---x--x--x--x--x--------|
Bb|--------3--3-x--3--3-3---3--3--x--3--3--3-----3---3--x--3--3--3--------|
Gb|-2--2---2--2-x--2--2-2---4--4--x--4--4--4-----2---2--x--2--2--2--------|
Db|-0--0---0--0-x--0--0-0---2--2--x--2--2--2-----0---0--x--0--0--0--------|
Ab|-x--0---2--2-x--2--2-2---2--2--x--2--2--2-----x---x--x--x--x--x--------|
Eb|-3------x--x-x--x--x-x---x--x--x--x--x--x-----3---3--x--3--3--3--------|



Share "Sun" by Daphne Loves Derby


TOP 10 TABS

FRESH NEW TABS

ALL ARTISTS
artist wiki

mp3bear.com
song lyrics / contact us / privacy policy / tabspace toolbar
Copyright 2004 - 2014 TabSpace.com - All Rights Reserved.
song: sun guitar tabs by daphne loves derby

0.013