:: Guitar & Bass Tabs Make Home Page
A B C D E F G H I J K L M N O P Q R S T U V W X Y Z #

  for    

On TABSPACE
Info About This Tab
Artist: Daphne Loves Derby
Tab Type: Guitar
Difficulty: intermediate
Rate This Tab!
SUNDAYS by Daphne Loves Derby
Tabbed by Austin Park
Tuning - Standard

INTRO: I’m not sure what happens near the end of the intro into the riff
e|-------------------------------------------------------------------|
B|-------------------------------------------------------------------|
G|----10--11--10------------13--15--13-------------------------------|
D|--11--11--11--11--------13--13--13--13-----------------------------|
A|-9--------------------11-------------------------------------------|
E|-------------------------------------------------------------------|

Riff 1
e|--------------------------------------------------------------------|
B|--------------------------------------------------------------------|
G|-----15-----16-------8--------15-----11----10------6----------------|
D|-------x8-----x8------x8--------x8----x6-----x2------x8-------------|
A|----13-----14-------6--------13-----9-----8-------4-----------------|
E|--------------------------------------------------------------------|

Chords used in song – these are used in relation with the first riff
e|--------------------------------------------------------------------|
B|--------------------------------------------------------------------|
G|-----------------------4--------------------------------------------|
D|---4---------6---------4—x16-----4----------------------------------|
A|---4—x16-----6—x16-----2---------4—x16------------------------------|
E|---2---------4-------------------2----------------------------------|


Verse
Bass plays here with some guitar notes. I’ll figure it out later.

Pre-Chorus
e|----------------------------------|
B|----------------------------------|
G|----------------------------6--x--|
D|---6---x--------------------6—-x--| up and down, then palm mute near end
A|---6—--x---up and down------4--x--|
E|---4---x--------------------------|

Chorus
e|--------------------------------------------------------------------|
B|--------------------------------------------------------------------|
G|-----------------------4--------------------------------------------|
D|---4---------6---------4—x16-----4----------------------------------|
A|---4—x16-----6—x16-----2---------4—x16------------------------------|
E|---2---------4-------------------2----------------------------------|

Bridge – Kenny ends the song with the bridge
e|--------------------------------------------------------------|
B|-------------------------------6------------------------------|
G|-------------6-----------------6------------------------------|
D|---6---------6-x12---6---------6—x12 let it ring--------------|
A|---6—x12-----4—------6—x12-----4------------------------------|
E|---4-----------------4----------------------------------------|

This song is pretty easy to play, just remember to study the bands rhythm. Questions or 
=> apark1@gmu.edu


Share "Sundays" by Daphne Loves Derby


TOP 10 TABS

FRESH NEW TABS

ALL ARTISTS
artist wiki

mp3bear.com
song lyrics / contact us / privacy policy / tabspace toolbar
Copyright © 2004 - 2014 TabSpace.com - All Rights Reserved.
song: sundays guitar tabs by daphne loves derby

0.012