:: Guitar & Bass Tabs Make Home Page
A B C D E F G H I J K L M N O P Q R S T U V W X Y Z #

  for    

On TABSPACE
Info About This Tab
Artist: Rocky Horror
Tab Type: Bass
Difficulty: novice
Rate This Tab!
-------------------------------------------------------------------------------
			     SWEET TRANSVESTITE - Rocky Horror
-------------------------------------------------------------------------------

Tabbed By : ChemicalFire 
e-mail: Rob@crooks.me.uk 




Intro:

G--------|
D-2-2-2-2|
A--------|
E--------| 
  
G-----------|
D-1-2-2-2-2-|
A-----------|
E-----------| X14


G------------|
D-2-/-14-\-2-|
A------------|
E------------|

G-----------|----------|----------|--------------|
D-1-2-2-2-2-|4-5-5-5-5-|6-7-7-7-7-|-1-2-5--6-7-7-|
A-----------|----------|----------|--------------|
E-----------|----------|----------|--------------| X2

Verse:


G-----------|----------|----------|----------|-
D-1-2-2-2-2-|4-5-5-5-5-|6-7-7-7-7-|1-2-2-2-2-|-
A-----------|----------|----------|----------|-
E-----------|----------|----------|----------|-

G-----------|----------|----------|----|
D-1-2-2-2-2-|4-5-5-5-5-|6-7-7-7-7-|1-2-|
A-----------|----------|----------|----|
E-----------|----------|----------|----|

Chorus:


G---------------|4-4-4-4-4-4-4-4-|4-4-4-4-4-4-4-4-|--------------|-----------------|
D-2-2-2-2-2-2-2-|----------------|----------------|--------------|-----------------|
A---------------|----------------|----------------|0-0-0-0-0-0-0-|-0-0-0-0-0-0-0-0-|
E---------------|----------------|----------------|--------------|-----------------|

G---------------|----|
D-2-2-2-2-2-2-2-|1-2-|
A---------------|----|
E---------------|----|

Verse:


G----|
D-\2-|
A----|
E----|

G-----------|----------|----------|----------|-
D-1-2-2-2-2-|4-5-5-5-5-|6-7-7-7-7-|1-2-2-2-2-|-
A-----------|----------|----------|----------|-
E-----------|----------|----------|----------|- X6

G-----------|----------|----------|----|
D-1-2-2-2-2-|4-5-5-5-5-|6-7-7-7-7-|1-2-|
A-----------|----------|----------|----| 
E-----------|----------|----------|----| 

Chorus:

G---------------|4-4-4-4-4-4-4-4-|4-4-4-4-4-4-4-4-|--------------|-----------------|
D-2-2-2-2-2-2-2-|----------------|----------------|--------------|-----------------|
A---------------|----------------|----------------|0-0-0-0-0-0-0-|-0-0-0-0-0-0-0-0-|
E---------------|----------------|----------------|--------------|-----------------|

G---------------|----|
D-2-2-2-2-2-2-2-|1-2-|
A---------------|----|
E---------------|----| X1

Middle 8:

G------|----|----|----|
D-1-2--|4-5-|6-7-|1-2-|
A------|----|----|----|
E------|----|----|----| X2

Chorus (Varient)

G----|4-4-4-4-4-4-4-4-|4-4-4-4-4-4-4-4-|--------------|-----------------|
D-\2-|----------------|----------------|--------------|-----------------|
A----|----------------|----------------|0-0-0-0-0-0-0-|-0-0-0-0-0-0-0-0-|
E--- |----------------|----------------|--------------|-----------------|

G---------------|----|
D-2-2-2-2-2-2-2-|1-2-|
A---------------|----|
E---------------|----|


G---------------|4-4-4-4-4-4-4-4-|4-4-4-4-4-4-4-4-|--------------|-----------------|
D-2-2-2-2-2-2-2-|----------------|----------------|--------------|-----------------|
A---------------|----------------|----------------|0-0-0-0-0-0-0-|-0-0-0-0-0-0-0-0-|
E---------------|----------------|----------------|--------------|-----------------|

G---------------|---------|---|
D-2-2-2-2-2-2-2-|1-2~-----|-\2|
A---------------|---------|---|
E---------------|---------|---|

Outro:

Here each not is after each line that Frank says:


So - come up to the lab, 
G-----|
D-----|
A-----|
E-0---|

And see what's on the slab.
G-----|
D-----|
A-----|
E-3---|

I see you shiver with antici ... pation.
G-----|
D-----|
A-----|
E-0---|

But maybe the rain
G-----|
D-----|
A-----|
E-0---|

Isn't really to blame.
G-----|
D-----|
A-----|
E-3---|

So I'll remove the cause.
G-----|
D-----|
A-0---|
E-----|

But not the symptom.
G-----|
D-----|
A-----|
E-0~--|

| /  slide up
| \  slide down
| h  hammer-on
| p  pull-off
| ~  vibrato
| +  harmonic
| x  Mute note
===============================================================================

		    
	





Share "Sweet Transvestite" by Rocky Horror


TOP 10 TABS

FRESH NEW TABS

ALL ARTISTS
artist wiki

mp3bear.com
song lyrics / contact us / privacy policy / tabspace toolbar
Copyright 2004 - 2014 TabSpace.com - All Rights Reserved.
song: sweet transvestite bass tabs by rocky horror

0.02