:: Guitar & Bass Tabs Make Home Page
A B C D E F G H I J K L M N O P Q R S T U V W X Y Z #

  for    

On TABSPACE
Info About This Tab
Artist: Evanescence
Tab Type: Guitar
Rate This Tab!
Band- Evanescence
Song- Taking Over Me

ntro


~ - Let ring

* This is played on piano in the song, re-arrange for acoustic guitar.


    Bb                  G#      F#
E  -----------------------------------------|--|
C  ------------------------------------1----|--|
G  --6-----5----6--8-----5------3--------3--|--|
D  ----8-----8-------------6------4---------|--|
A  ------8-----8-------------6------4-------|--|
D  -----------------------------------------|--|

    Bb                  G#       F#
E  ----------------------------------|--|
C  ------------------------------0-~-|--|
G  --6-----5----6--8--------5----3---|--|
D  ----8-----8------------6------4---|--|
A  ------8-----8--------6--------4---|--|
D  ----------------------------------|--|


Play this once, then electric guitar comes in with this:


x - pick rake


    Bb                                F#/C#5            F
E  -----------------------------------------------------------------|--|
C  -----------------------------------------------------------------|--|
G  --55---------------66---------------55---------------55----------|--|
D  --88---------------88---------------44---------------34----------|--|
A  --88-x--88-88-x----88-x--88-88-x----44-x--44-44-x----33-x--43-33-|--|
D  --88-x--88-88-x----88-x--88-88-x----44-x--44-44-x----33-x--33-33-|--|


------------------------------------------------------------

Verse


~ - let ring

    Bb                             F#/C#5           F
E  ------------------------------------------------------------------|--|
C  ---------1~-------------0~----------------------------------------|--|
G  -----3------3-------3------3--------------6~--------------5~------|--|
D  ---3---3----------3---3--------------4-------4--------3-------4---|--|
A  -1--------------1------------------4---4------------4---3---------|--|
D  ---------------------------------4----------------3---------------|--|


Bb          Bb                F#/C#5       F
  You don't remember me but I remember you...


- This part plays three times, after the second time an electric guitar plays the intro
part over top of it once.

x - pick rake

    Bb                                F#/C#5            F
E  -----------------------------------------------------------------|--|
C  -----------------------------------------------------------------|--|
G  --55---------------66---------------55---------------55----------|--|
D  --88---------------88---------------44---------------34----------|--|
A  --88-x--88-88-x----88-x--88-88-x----44-x--44-44-x----33-x--43-33-|--|
D  --88-x--88-88-x----88-x--88-88-x----44-x--44-44-x----33-x--33-33-|--|


      Bb       Bb               F#/C#5           F
   But who can decide what they dream? and dream I do.


-----------------------------------------

 Chorus

x - pick rake


    Bb           F#/C#5  F
E  ---------------------------------|--|
C  ---------------------------------|--|
G  --6---6------------5------6------|--|
D  --x---x-----------3------4-------|--|
A  --8---8-x------3-3----4-4--------|--|
D  --8---8-x------3------4----------|--|

Bb        F#/C#5  F
 I believe in   you

Bb           F#/C#5             F
 I'd give up everything just to find you

Bb        F#5/C#5  F
I have to be with you

   Bb
To live, to breathe

      F#/C#5       F
You're taking over me


-----------------------------------------

Bridge

x - pick rake


     F#5                Bb
E  ------------------------------------|--|
C  ------------------------------------|--|
G  ------------------------------------|--|
D  --44------44--------88------88------|--|
A  --44-xxxx-44-xxxx---88-xxxx-88-xxxx-|--|
D  --44-xxxx-44-xxxx---88-xxxx-88-xxxx-|--|

     F#5              F
E  -------------------------|--|
C  -------------------------|--|
G  -------------------------|--|
D  --44------44--------33---|--|
A  --44-xxxx-44-xxxx---33---|--|
D  --44-xxxx-44-xxxx---33---|--|

F#5                                   Bb
    I look in the mirror and see your face

F#5                            F
    So many things inside, its just like you were taking over


Share "Taking Over Me" by Evanescence


TOP 10 TABS

FRESH NEW TABS

ALL ARTISTS
artist wiki

mp3bear.com
song lyrics / contact us / privacy policy / tabspace toolbar
Copyright 2004 - 2014 TabSpace.com - All Rights Reserved.
song: taking over me guitar tabs by evanescence

0.009