:: Guitar & Bass Tabs Make Home Page
A B C D E F G H I J K L M N O P Q R S T U V W X Y Z #

  for    

On TABSPACE
Info About This Tab
Artist: Paramita
Tab Type: Guitar
Difficulty: intermediate
Rate This Tab!
Song: Tala
Artist: Paramita
Tabbed By: Lester Ilano Manalo
******************Add nio ako sa friendster: retselmanalo@yahoo.com**********
******************retselmanalo@yahoo.com, retselmanalo@yahoo.com*************
******************retselmanalo@yahoo.com, retselmanalo@yahoo.com*************

Tuning: EADGBe

Intro:

e |---------------------------------------|
b |---------------------------------------|
g |----1----1---1\2----2---2--------------|
d |---------------------------------------|   2x
a |----0--0----0----0----0----------------|
e |---------------------------------------|

e |---------------------------------------|
b |---0-----------------------------------|
g |------1-1---2----2----2----------------|
d |---------------------------------------|   2x
a |---------------------------------------|
e |---2--------2--2----2----2-------------|

Guitar 1
      E     Ab     E (hold)
e |---x--|---x--|--x-------|
b |---x--|---x--|--x-------|
g |---9--|--13--|--9-------|
d |---x--|---x--|--x-------|
a |---7--|--11--|--7-------|
e |---x--|---x--|--x-------|


Ryhtm Guitar
      A2       F#/A2     A2(hold)
e |----0----|----0---|----0---|
b |----0----|----0---|----0---|
g |----2----|----2---|----2---|
d |----2----|----2---|----2---|
a |----0----|----0---|----0---|
e |----x----|----2---|----x---|



e |-----------------------------|    
b |-----------------------------|    
g |----1----1---1\2----2---2----|    
d |-----------------------------|2x Ang 'yong tala ay nagniningning...... 
a |----0--0----0----0----0------|   ang 'yong tala ay nagdidilim ...... 
e |-----------------------------|


Guitar 1
      E     Ab     E (hold)
e |---x--|---x--|--x-------|
b |---x--|---x--|--x-------|
g |---9--|--13--|--9-------|
d |---x--|---x--|--x-------|
a |---7--|--11--|--7-------|
e |---x--|---x--|--x-------|


Rythm Guitar
     F#/A2       A2(hold)
e |----0----|----0----|
b |----0----|----0----|
g |----2----|----2----|
d |----2----|----2----|
a |----0----|----0----|
e |----2----|----x----|


e |-----------------------------|    
b |-----------------------------|    walang kupas ang  
g |----1----1---1\2----2---2----|    kinang ng iyong bituwin.....
d |-----------------------------|2x   
a |----0--0----0----0----0------|    kumukupas ang kinang 
e |-----------------------------|    ng iyong bituwin...


Guitar 1
      E     Ab     E (hold)
e |---x--|---x--|--x-------|
b |---x--|---x--|--x-------|
g |---9--|--13--|--9-------|
d |---x--|---x--|--x-------|
a |---7--|--11--|--7-------|
e |---x--|---x--|--x-------|


Rythm Guitar
      F#/A2      D(hold)
e |----0----|----0----|
b |----0----|----2----|
g |----2----|----2----|
d |----2----|----0----|
a |----0----|----x----|
e |----2----|----x----|



    D(Strumming)
e |---0----|
b |---2----|
g |---2----|  mula sa lupa, di mapantayan
d |---0----|  sa kalangitan, tanging liwanag mo
a |---x----|  ang natatanaw...
e |---x----|

Guitar 1
      E     Ab     D (hold)
e |---x--|---x--|--0-------|
b |---x--|---x--|--2-------|
g |---9--|--13--|--2-------|
d |---x--|---x--|--0-------|
a |---7--|--11--|--x-------|
e |---x--|---x--|--x-------|


Rythm Guitar
      F#/A2      D(hold)
e |----0----|----0----|
b |----0----|----2----|
g |----2----|----2----|
d |----2----|----0----|
a |----0----|----x----|
e |----2----|----x----|

      D      B/D
e |---0--|---0----|
b |---2--|---2----|
g |---2--|---2----|  ngunit bakit my pait?
d |---0--|---0----|  sa iyong mga ngiti?
a |---x--|---2----|  nakalimutan mo na ba?
e |---x--|---x----|



Chourus

Guitar 1
      E     Ab     
e |---x--|---x--|
b |---x--|---x--|
g |---9--|--13--|
d |---x--|---x--| 2x then hold E
a |---7--|--11--|
e |---x--|---x--|


Ryhtm Guitar
      A2       F#/A2     
e |----0----|----0---|
b |----0----|----0---|
g |----2----|----2---|
d |----2----|----2---| 2x then hold A2
a |----0----|----0---|
e |----x----|----2---|

hiram ang bawat saglit
daanin mo sa iyak ang lahat ng pait


	 D	B/D	   A       F#/A2
e |------0------0----------0-------0---------|
b |------2------2----------2-------2---------|
g |------2------2----------2-------2---------|
d |------0------0----------2-------2---------|	 4X
a |------x------2----------0-------0---------|
e |------x------x----------x-------2---------|


	
e |-------------------------------------2p0---------|
b |---0------0----2----2--3---3---2----------0------|
g |-------------------------------------------------|
d |---0---0-----0---0-------0---0-------0-----------|
a |-------------------------------------------------|
e |-------------------------------------------------|

e |----------------------------------------|
b |---0------0----2----2--3---3---2(hold)--|
g |----------------------------------------|
d |---0---0-----0---0-------0---0----------|
a |----------------------------------------|
e |----------------------------------------|

| /  slide up
| \  slide down
| h  hammer-on
| p  pull-off
| ~  vibrato
| * harmonic
| . Mute note




Share "Tala" by Paramita


TOP 10 TABS

FRESH NEW TABS

ALL ARTISTS
artist wiki

mp3bear.com
song lyrics / contact us / privacy policy / tabspace toolbar
Copyright 2004 - 2014 TabSpace.com - All Rights Reserved.
song: tala guitar tabs by paramita

0.074