:: Guitar & Bass Tabs Make Home Page
A B C D E F G H I J K L M N O P Q R S T U V W X Y Z #

  for    

On TABSPACE
Info About This Tab
Artist: Paramita
Tab Type: Guitar
Difficulty: intermediate
Rate This Tab!


intro:

e|-----------------------------|
b|-----------------------------|
g|---1-----1---1h2-2-2---2-----|   (2x)
d|-----0-0---0---------0-------|
a|---0-------------------------|
e|-----------------------------|


e|-----------------------------|
b|---0-------------------------|
g|---------1---1h2-2-2---2-----|   (2x)
d|-----0-0---0---------0-------|
a|---0-------------------------|
e|-----------------------------|

guitar 1:
e|-----------------------------|
b|-----------------------------|
g|---1-----1---1h2-2-2---2-----|   (2x)
d|-----0-0---0---------0-------|
a|---0-------------------------|
e|-----------------------------|


e|-----------------------------|
b|---2-------------------------|
g|---------1---1h2-2-2---2-----|   (2x)
d|-----0-0---0---------0-------|
a|---0-------------------------|
e|-----------------------------|

guitar2
e|--------------------------------|
b|--------------------------------|
g|--999999999777/131313131313--9--|
d|--xxxxxxxxxxxx/x-x-x-x-x-x---x--|
a|--777777777777/111111111111--7--|
e|--------------------------------|



verse:

guitar 1
(kayo n lng bahala mg bilang kung ilang beses huh)
(nakakaamad kazi eh hhehehehe)

e|-----------------------------|
b|-----------------------------|
g|---1-----1---1h2-2-2---2-----|
d|-----0-0---0---------0-------|
a|---0-------------------------|
e|-----------------------------|


e|-----------------------------|
b|---2-------------------------|
g|---------1---1h2-2-2---2-----|
d|-----0-0---0---------0-------|
a|---0-------------------------|
e|-----------------------------|

guitar2
e|--------------------------------|
b|--------------------------------|
g|--999999999777/131313131313--9--|
d|--xxxxxxxxxxxx/x-x-x-x-x-x---x--|
a|--777777777777/111111111111--7--|
e|--------------------------------|


senxa n a di tapoz eh my nag pagulo lang kasi n isang basura d2...senxa nah..
pero tama yan....
executer2eb11@yahoo.com


Share "Tala Intro" by Paramita


TOP 10 TABS

FRESH NEW TABS

ALL ARTISTS
artist wiki

mp3bear.com
song lyrics / contact us / privacy policy / tabspace toolbar
Copyright 2004 - 2014 TabSpace.com - All Rights Reserved.
song: tala intro guitar tabs by paramita

0.016