:: Guitar & Bass Tabs Make Home Page
A B C D E F G H I J K L M N O P Q R S T U V W X Y Z #

  for    

On TABSPACE
Info About This Tab
Artist: George Thorogood
Tab Type: Guitar
Rate This Tab!
The song is in G so the chords are G, C and D
    G                                    G7
e|---------------------------------------x-----x------x--x---x--|
B|---------------------------------------6-----6------6--x---6--|
G|---------------------------------------4--x--4------4--x---4--|
D|--5---x---5--x--3h5-5---x--5-x--5--x---3--x--3--x---3--x---3--|
A|--5---x---5--x------5---x--5-x--5--x---5--x--5--x---5--x---5--|
E|--x---x---x--x------x---x--x-x--x--x---x--x--x--x---x--x---x--|

Riff 1
(slide)
e|-------------------------------------------------------|
B|-------------------------------------------------------|
G|-------------------------------------------------------|
D|----------------------10---------------------8---5---5-|
A|-5--5--5/10--10--10--------10-\--8-\--5-/-8------5---5-|
E|-------------------------------------------------------|

bridge at about 0:25
(slide)
e|-----------------------------------------------------|
B|-----------------------------------------------------|
G|-----------------------------------------------------|
D|--5---5--5/-12--12--12-12\5/10-10-10-10-\--5/8--5--5-|
A|--5---5--5/-12--12--12-12\5/10-10-10-10-\--5/8--5--5-|
E|-----------------------------------------------------|

around 1:15
(slide)
e|--------------------------|
B|--------------------------|
G|--------------------------|
D|--5--8---5---8\5/8\5------|
A|--5--8---5---8\5/8\5------|
E|--------------------------|

around 1:20
(slide)
e|-----------------------------------|
B|---------------12------------------|
G|--/12--12--12------12--------------|
D|--/12--12--12----------12-\--------|
A|-----------------------------------|
E|-----------------------------------|

solo
(slide)
e|-----------------------------------------------------------|
B|-----------------------------------------------------------|
G|----------------------------------------------15\--0/3\0---|
D|-----5--8-8\--5--5-5-5--/10-----8\--8---5-5---15\--------5-|
A|-3/5----8-8\--5--5-5-5------10------8---5-5----------------|
E|-----------------------------------------------------------|

e|---------------------------------------------------------------------|
B|---------------------------------------------------------------------|
G|----------------------------------------------15\--------------------|
D|-----5--8-8\--5--5-5-5--/10-----8\--8---5-5---15\-----5---8--5--8--5-|
A|-3/5----8-8\--5--5-5-5------10------8---5-5-------3/5-----8--5--8--5-|
E|---------------------------------------------------------------------|

e|-----------------------------------------------------|
B|-----------------------------------------------------|
G|-----------------------------------------------------|
D|--5---5--5/-12--12--12-12\5/10-10-10-10-\--5/8--5--5-|
A|--5---5--5/-12--12--12-12\5/10-10-10-10-\--5/8--5--5-|
E|-----------------------------------------------------|


Share "That Same Thing" by George Thorogood


TOP 10 TABS

FRESH NEW TABS

ALL ARTISTS
artist wiki

mp3bear.com
song lyrics / contact us / privacy policy / tabspace toolbar
Copyright 2004 - 2014 TabSpace.com - All Rights Reserved.
song: that same thing guitar tabs by george thorogood

0.013