:: Guitar & Bass Tabs Make Home Page
A B C D E F G H I J K L M N O P Q R S T U V W X Y Z #

  for    

On TABSPACE
Info About This Tab
Artist: Panic At The Disco
Tab Type: Guitar
Difficulty: novice
Rate This Tab!
Tabbed by: Cursedreject [Errold]
Email: cursedreject@gmail.com

Tuning Standard

Here's my first stab at tabbing out an entire song
Not entirely sure about the chords and the progression but here's what I have
~~~~~~~~~~~~~~~~~~~~~~~~~~~~~~~~~~~~~~~~~~~~~~~~~~

Verse 1: A
Chorus: D A E F#m (x2)
        D A E D
        A C#m E
Verse 2: (bass)
Chorus: D A E F#m (x2)
        D A E D
        A C#m E
Bridge: C#m D A E (x2) D D
Violin + Solo: F#m D A E (x5)
Post-solo: A

e ----------------------------------------|
b -----7*---------------------------------|
g --7*----5*-7*---------------------------|
d --------------5*-5*--7*-----------------|
a ----------------------------------------|
e ----------------------------------------|
Intro (Natural Harmonics)
 not really sure about the second part

Verse:
e -0-
b -2-
g -2-
d -2-
a -0-
e -x-
  (A)

1st guitar                  2nd guitar
e-----------------          ------------------|
b-----------------          ------------------|
g-----------------          ------------------|
d------7-7--------          --6h7-7-7-7-7-7-7-|
a-5-5-------------          ------------------|
e-5-5-------------          ------------------|
 .................          .................
 palm mute

both
e ------------------------------------|
b ------------------------------------|
g ------------------------------------|
d -7/9-9-9-9-9-9-9-9-9-9^-9^-9^-9^-9--|
a ------------------------------------|
e ------------------------------------|
("the way her tears taste")    bend^

 Chorus
e|--2-2-2--x-0---0-0--(0)--0-0-0--x--2---2-2-------------|
B|--3-3-3--x-2---2-2--(2)--0-0-0--x--2---2-2-------------|
G|--2-2-2--x-2---2-2--(2)--1-1-1--x--2---2-2-------------| (x2)
D|--0-0-0--x-2---2-2--(2)--2-2-2--x--4---4-4-------------|
A|---------x-0---0-0--(0)--2-2-2--x--4---4-4-------------|
E|---------x---------------x-x-x--x--2---2-2-------------|
    (D)     (A)           (E)       (F#m)

e|--2-2-2--x-0---0-0--(0)--0-0-0--x--2---2-2-------------|
B|--3-3-3--x-2---2-2--(2)--0-0-0--x--2---2-2-------------|
G|--2-2-2--x-2---2-2--(2)--1-1-1--x--2---2-2-------------|
D|--0-0-0--x-2---2-2--(2)--2-2-2--x--4---4-4-------------|
A|---------x-0---0-0--(0)--2-2-2--x--4---4-4-------------|
E|---------x---------------x-x-x--x--2---2-2-------------|

e|--2~------0~---------4~------------------0~---------------------|
B|--3~------2~---------5~------------------0~---------------------|
G|--2~------2~---------6~------------------1~---------------------|
D|--0~------2~---------6~------------------2~---------------------|
A|----------0~---------4~------------------2~---------------------|
E|-----------------------------------------x----------------------|
    (D)   (A)        (C#m)                 (E)
  (and i meant     everything I said     that night)


e|--2~------0~-----------0-0-0-0-0-0-0-0----------|
B|--3~------2~-----------0-0-0-0-0-0-0-0----------|
G|--2~------2~-----------1-1-1-1-1-1-1-1----------|
D|--0~------2~-----------2-2-2-2-2-2-2-2----------|
A|----------0~-----------2-2-2-2-2-2-2-2----------|
E|------------------------------------------------|
    (D)    (A)           (E)
 (I will  come back to   life             only for you)


[bass here]

Verse 2: no guitar but you can just re-use chords
Repeat Chorus


Bridge

e|--4-4-4--x-2---2-2--(2)--0-0-0--x--0---0-0-----------2-2------------|
B|--5-5-5--x-3---3-3--(3)--2-2-2--x--0---0-0-----------3-3------------|
G|--6-6-6--x-2---2-2--(2)--2-2-2--x--1---1-1-----------2-2------------|
D|--6-6-6--x-0---0-0--(0)--2-2-2--x--2---2-2-----------0-0------------|
A|--4-4-4--x---------------0-0-0--x--2---2-2-----------0-0------------|
E|---------x---------------x-x-x--x--x---x-x--------------------------|
   (C#M)    (D)
      (i'll sleep...)     (I guess all...)            (and I conduct you)


Violin Here & Solo
[plays in the background as well]
e|--2----2-2---0-0---0-----------0~---|
B|--2----3-3---2-2---0-----------2~---|
G|--2----2-2---2-2---1----(x4)---2~---|
D|--4----0-0---2-2---2-----------2~---|
A|--4----------0-0---2-----------0~---|
E|--2---------------------------------|
   (F#m) (D)  (A)   (E)         (A)
                               (They said if you don't let it out)


Chorus
Ending
e|--2----2-2---0-0---0----|
B|--2----3-3---2-2---0----|
G|--2----2-2---2-2---1----|
D|--4----0-0---2-2---2----|
A|--4----------0-0---2----|
E|--2---------------------|


Share "The Calendar" by Panic At The Disco


TOP 10 TABS

FRESH NEW TABS

ALL ARTISTS
artist wiki

mp3bear.com
song lyrics / contact us / privacy policy / tabspace toolbar
Copyright 2004 - 2014 TabSpace.com - All Rights Reserved.
song: the calendar guitar tabs by panic at the disco

0.017