:: Guitar & Bass Tabs Make Home Page
A B C D E F G H I J K L M N O P Q R S T U V W X Y Z #

  for    

On TABSPACE
Info About This Tab
Artist: Caedmons Call
Tab Type: Guitar
Difficulty: novice
Rate This Tab!
==================================               ==========================
The Emptiest Day---Caedmon's Call----------------Transfered by Asa Gaston
==================================               ==========================

	Asus   G/B   G   Em7   D2/F#   Fadd6  D2  G4
E        0 	0    0	  0      0       0    0    0
B        3      3    3    3      3       3    3    3
G	 2      0    0    0      2       2    2    0
D	 2	2    0    2      0       3    0    x
A	 0      2    2    2      0       x    x    x
E	 x      x    3    0      2       x    x    x


Intro Riff:

E----------------------------------------------------------|
B------3--------3---------3--------------------------------|
G----2---0--------0-----0---0-0h2-0------------------------|
D--0----------0-----0h2-------------4--2-------------------|
A----------------------------------------------------------|
E----------------------------------------------------------|

Verse Riff:

E-----------------------------------------------------------|
B-----3-------3---------3-----3---------3-----3---------3---|
G---2---0-------0-----2---0-----0-----0-----0---0-----0---0-|
D-0---------0-------0-------0-----2h3-----2-------2h3-------|
A-----------------------------------------------------------|
E-----------------------------------------------------------|


Verse 1: (Verse Riff)

D2     G4     D2     G4
Fadd6  Asus   Fadd6
D2     G4     D2     G4
Fadd6  Asus   Fadd6

Pre-Chorus:

Asus  G/B  G
Asus  G/B  G

Chorus:

Em7   D2/F#    G   Asus
Em7   D2/F#    G   Asus
Em7   D2/F#    G   Asus
G     D2/F#    Em7

Bridge:
Fadd6  Asus  G/B  D2
Fadd6  Asus  G/B  D2


Share "The Emptiest Day" by Caedmons Call


TOP 10 TABS

FRESH NEW TABS

ALL ARTISTS
artist wiki

mp3bear.com
song lyrics / contact us / privacy policy / tabspace toolbar
Copyright 2004 - 2014 TabSpace.com - All Rights Reserved.
song: the emptiest day guitar tabs by caedmons call

0.01