:: Guitar & Bass Tabs Make Home Page
A B C D E F G H I J K L M N O P Q R S T U V W X Y Z #

  for    

On TABSPACE
Info About This Tab
Artist: Wasp
Tab Type: Guitar
Rate This Tab!
 The Heretic (The Lost Child) - W.A.S.P.
                                    The Headless Children
                     
Tabbed by:kooldood

Tuning: Eb Ab Db Gb Bb eb  up 1/2 a step

Intro

e|---------------------------------------|
B|---------------------------------------|
G|---------------------------------------|
D|-------9---10------9-----9---7---------|  Let ring     PLay LOTS of times
A|-----7--------7------7---------7-------|
E|---0-----0------0------0---0-----0-----|

Verse 1A

e|---------------------------------------------------------------------------|
B|---------------------------------------------------------------------------|
G|---------------------------------------------------------------------------|
D|---9--9--9-------------------10--10--10------------------------------------|
A|---7--7--7--------------------7---7---7------------------------------------|
E|------------0-0-0-0-0-0-0-0---------------0-0-0-0-0-0-0-0------------------|
                                                                    X4  (might be X2)
e|---------------------------------------------------------------------------|
B|---------------------------------------------------------------------------|
G|---------------------------------------------------------------------------|
D|-----12--12--12--------------------9---7---9-------------------------------|
A|------7---7---7--------------------7---5---7--------------5~~--------------|
E|-----------------0-0-0-0-0-0-0-0--------------0-0-0-0-5h7------------------|

Bridge 1A

e|---------------------------------------------------------------------------|
B|---------------------------------------------------------------------------|
G|---------------------------------------------------------------------------|
D|---5---7---9---------------------------5---7-------------------------------|     Repeat verse 1A
A|---3---5---7---------------------------3---5---3-----5---------------------|
E|--------------0-0-0-0-0-0-0-0------------------1-----3---------------------|

Verse 2A

e|---------------------------------------------------------------------------|
B|---------------------------------------------------------------------------|
G|---------------------0--------------0--------------------------------------|
D|---9---------2-------0------2-------0-----2----------9---------------------|
A|---7---------0--------------0-------------0----------7---------------------|
E|---------------------3--------------3--------------------------------------|

Chorus

e|-------------------------------------------------|----7-------|--12------|------
B|-------------------------------------------------|---10-B-12--|--15-B-17-|------
G|-------------------------------------------------|------------|----------|--12--    
D|---9---7---9---7-------7---9---------------------|------------|----------|------    
A|---7---5---7---5-------5---7---------------------|------------|----------|-----12-
E|-------------------7-----------0-0-0-0-0-0-0-0---|------------|----------|------

-------------------------|
-------------------------|
-----------------12------|
-------12-H-14-------14~-|
-H-14--------------------|
-------------------------|

Bridge 1B

e|---------------------------------------------------------------------------|
B|---------------------------------------------------------------------------|
G|---------------------------------------------------------------------------|
D|-------5----------------5--------------------------------------------------|
A|---7-------7---5----7--------7---5----7------------------------------------|
E|-------------------------------------------0-0-0-0-0-0-0-0-----------------|

Bridge 1B 2nd time harmony

e|---------------------------------------------------------------------------|
B|---------------------------------------------------------------------------|
G|-------7----------------7--------------------------------------------------|
D|---9-------9---7----9--------9---7----9------------------------------------|
A|---------------------------------------------------------------------------|
E|------------------------------------------0-0-0-0-0-0-0-0------------------|

drum solo

e|---------------------------------------------------------------------------|
B|---------------------------------------------------------------------------|
G|---------------------------------------------------------------------------|
D|---------------------------------------------------------------------------|
A|--2------------------------------------------------------------------------|
E|--0------------------------------------------------------------------------|


Key Change Interlude 1A

e|---------------------------------------------------------------------------|
B|----------------------------------15---------------------------------------|
G|----------11------12------14----------------12----11-----------------------|
D|--12--12------12------12------12-----12--12----12----12--------------------|
A|---------------------------------------------------------------------------|
E|---------------------------------------------------------------------------|

e|---------------------------------------------------------------------------|
B|----------------------------------15---------------------------------------|
G|----------11------12------14----------------12----11-----------------------|
D|--12--12------12------12------12-----12--12----12----12--------------------|
A|---------------------------------------------------------------------------|
E|---------------------------------------------------------------------------|
                                                                                          X2
e|---------------------------------------------------------------------------|
B|----------------------------------13---------------------------------------|
G|-----------9-------10------12----------------10----9-----------------------|
D|--10--10-------10------12-----12-----12--12-----12----12-------------------|
A|---------------------------------------------------------------------------|
E|---------------------------------------------------------------------------|

e|---------------------------------------------------------------------------|
B|----------------------------------15---------------------------------------|
G|----------11------12------14----------------12----11-----------------------|
D|--12--12------12------12------12-----12--12----12----12--------------------|      
A|---------------------------------------------------------------------------|
E|---------------------------------------------------------------------------|


Verse 3A

e|---------------------------------------------------------------------------|
B|---------------------------------------------------------------------------|
G|---------------------------------------------------------------------------|
D|--7---7----7----------------------------7---7----7-------------------------|
A|--5---5----5----5-5-5-5-5-5-5-5---------5---5----5----5-5-5-5-5-5-5-5------|
E|---------------------------------------------------------------------------|
                                                                                      X2
e|---------------------------------------------------------------------------|
B|---------------------------------------------------------------------------|
G|---------------------------------------------------------------------------|
D|--5----5----5---------------------------7----7---7-------------------------|
A|--3----3----3----3-3-3-3-3-3-3-3--------5----5---5----5-5-5-5-5-5-5-5------|
E|---------------------------------------------------------------------------|

e|---------------------------------------------------------------------------|
B|---------------------------------------------------------------------------|
G|---------------------------------------------------------------------------|
D|-----3--------5--------7---------------------------------------------------|
A|-----1--------3--------5------5-5-5-5-5-5-5-5------------------------------|
E|---------------------------------------------------------------------------|

Solo 1
Chorus 2

bridge 2

e|---------------------------------------------------------------------------|
B|---------------------------------------------------------------------------|
G|---------------------------------------------------------------------------|
D|---------------------------------------------------------------------------|
A|--10--9--7--10--9--7--10--9--10--9-----10--9--7--10--9--7--10--9--10--9----|
E|---------------------------------------------------------------------------|

Bridge 3

e|---------------------------------------------------------------------------|
B|---------------------------------------------------------------------------|
G|---------------------------------------------------------------------------|
D|---9-----------------12---------------14-----------------------------------|
A|---7-----------------10---------------12---12-12-12-12-12-12-12-12---------|
E|---------0-----0----------0-----0------------------------------------------|

Solo 2-----    Random pentatonic and chromatic licks



Please dont knock me too much if ive got some parts wrong as im only 13 and the
tuning is strange on this album.


Share "The Heretic" by Wasp


TOP 10 TABS

FRESH NEW TABS

ALL ARTISTS
artist wiki

mp3bear.com
song lyrics / contact us / privacy policy / tabspace toolbar
Copyright 2004 - 2014 TabSpace.com - All Rights Reserved.
song: the heretic guitar tabs by wasp

0.013