:: Guitar & Bass Tabs Make Home Page
A B C D E F G H I J K L M N O P Q R S T U V W X Y Z #

  for    

On TABSPACE
Info About This Tab
Artist: 30 Seconds To Mars
Tab Type: Guitar
Rate This Tab!
The Kill                                     
30 Seconds to Mars


Rhythm Guitar

     |-3|    |--3-|  |-3|    |--3-|     |-3|    |--3-|  |-3|    |--3-|   
     E  Q    Q    E  E  Q    Q    E     E  Q    Q    E  E  Q    Q    E   
E||----------------------------------|----------------------------------|
B||----------0---------------0-------|----------0---------------0-------|
G||---------------0---------------0--|---------------0---------------0--|
D||--5--5------------5--5------------|--5--5------------5--5------------|
A||--3--3------------3--3------------|--3--3------------3--3------------|
E||----------------------------------|----------------------------------|


  |-3|         |-3|            |-3|         |-3|          
  E  Q    Q    E  Q    Q       E  Q    Q    E  Q    Q     
----------------------------|----------------------------|
----------0------------0----|----------0------------0----|
----------------------------|----------------------------|
--7--7---------7--7---------|--7--7---------7--7---------|
--5--5---------5--5---------|--5--5---------5--5---------|
----------------------------|----------------------------|


  |-3|    |--3-|  |-3|    |--3-|     |-3|    |--3-|  |-3|    |--3-|   
  E  Q    Q    E  E  Q    Q    E     E  Q    Q    E  E  Q    Q    E   
----------------------------------|----------------------------------|
----------0---------------0-------|----------0---------------0-------|
---------------0---------------0--|---------------0---------------0--|
--9--9------------9--9------------|--9--9------------9--9------------|
--7--7------------7--7------------|--7--7------------7--7------------|
----------------------------------|----------------------------------|


  |-3|         |-3|            |-3|         |-3|          
  E  Q    Q    E  Q    Q       E  Q    Q    E  Q    Q     
----------------------------|----------------------------|
----------0------------0----|----------0------------0----|
----------------------------|----------------------------|
--4--4---------4--4---------|--4--4---------4--4---------|
--2--2---------2--2---------|--2--2---------2--2---------|
----------------------------|----------------------------|


  |-3|    |--3-|  |-3|    |--3-|     |-3|    |--3-|  |-3|    |--3-|   
  E  Q    Q    E  E  Q    Q    E     E  Q    Q    E  E  Q    Q    E   
----------------------------------|----------------------------------|
----------0---------------0-------|----------0---------------0-------|
---------------0---------------0--|---------------0---------------0--|
--5--5------------5--5------------|--5--5------------5--5------------|
--3--3------------3--3------------|--3--3------------3--3------------|
----------------------------------|----------------------------------|


  |-3|         |-3|            |-3|         |-3|          
  E  Q    Q    E  Q    Q       E  Q    Q    E  Q    Q     
----------------------------|----------------------------|
----------0------------0----|----------0------------0----|
----------------------------|----------------------------|
--7--7---------7--7---------|--7--7---------7--7---------|
--5--5---------5--5---------|--5--5---------5--5---------|
----------------------------|----------------------------|


  |-3|    |--3-|  |-3|    |--3-|     |-3|    |--3-|  |-3|    |--3-|   
  E  Q    Q    E  E  Q    Q    E     E  Q    Q    E  E  Q    Q    E   
----------------------------------|----------------------------------|
----------0---------------0-------|----------0---------------0-------|
---------------0---------------0--|---------------0---------------0--|
--9--9------------9--9------------|--9--9------------9--9------------|
--7--7------------7--7------------|--7--7------------7--7------------|
----------------------------------|----------------------------------|


  |-3|         |-3|            |-3|         |-3|          
  E  Q    Q    E  Q    Q       E  Q    Q    E  Q    Q     
----------------------------|----------------------------|
----------0------------0----|----------0------------0----|
----------------------------|----------------------------|
--4--4---------4--4---------|--4--4---------4--4---------|
--2--2---------2--2---------|--2--2---------2--2---------|
----------------------------|----------------------------|


  |--3--|  |--3--|  |--3--|  |--3--|     |--3--|  |--3--|  |--3--|  |--3--|   
  E  E  E  E  E  E  E  E  E  E  E  E     E  E  E  E  E  E  E  E  E  E  E  E   
--------------------------------------|--------------------------------------|
--------------------------------------|--------------------------------------|
--------------------------------------|--------------------------------------|
--5--5--5--5--5--5--5--5--5--5--5--5--|--5--5--5--5--5--5--5--5--5--5--5--5--|
--3--3--3--3--3--3--3--3--3--3--3--3--|--3--3--3--3--3--3--3--3--3--3--3--3--|
--------------------------------------|--------------------------------------|


  |--3--|  |--3--|  |--3--|  |--3--|   
  E  E  E  E  E  E  E  E  E  E  E  E   
--------------------------------------|
--------------------------------------|
--------------------------------------|
--7--7--7--7--7--7--7--7--7--7--7--7--|
--5--5--5--5--5--5--5--5--5--5--5--5--|
--------------------------------------|


  |--3--|  |--3--|    |---3---|   |---3---|   
  E  E  E  E  E  E    E   E   E   E   E   E   
---------------------------------------------|
---------------------------------------------|
---------------------11--11--11--11--11--11--|
--7--7--7--7--7--7---------------------------|
--5--5--5--5--5--5s---9---9---9---9---9---9--|
---------------------------------------------|


  |--3--|  |--3--|  |--3--|  |--3--|     |--3--|  |--3--|  |--3--|  |--3--|   
  E  E  E  E  E  E  E  E  E  E  E  E     E  E  E  E  E  E  E  E  E  E  E  E   
--------------------------------------|--------------------------------------|
--------------------------------------|--------------------------------------|
--------------------------------------|--------------------------------------|
--9--9--9--9--9--9--9--9--9--9--9--9--|--9--9--9--9--9--9--9--9--9--9--9--9--|
--7--7--7--7--7--7--7--7--7--7--7--7--|--7--7--7--7--7--7--7--7--7--7--7--7--|
--0--0--0--0--0--0--0--0--0--0--0--0--|--0--0--0--0--0--0--0--0--0--0--0--0--|


  |--3--|  |--3--|  |--3--|  |--3--|     |--3--|  |--3--|  |--3--|  |--3--|   
  E  E  E  E  E  E  E  E  E  E  E  E     E  E  E  E  E  E  E  E  E  E  E  E   
--------------------------------------|--------------------------------------|
--------------------------------------|--------------------------------------|
--------------------------------------|--------------------------------------|
--4--4--4--4--4--4--4--4--4--4--4--4--|--4--4--4--4--4--4--4-----------------|
--2--2--2--2--2--2--2--2--2--2--2--2--|--2--2--2--2--2--2--2-----------------|
--------------------------------------|--------------------------------------|


  ---   ---   ---   ---   ---   ---   ---   --- 
-----|-----|-----|-----|-----|-----|-----|-----|
-----|-----|-----|-----|-----|-----|-----|-----|
-----|-----|-----|-----|-----|-----|-----|-----|
-----|-----|-----|-----|-----|-----|-----|-----|
-----|-----|-----|-----|-----|-----|-----|-----|
-----|-----|-----|-----|-----|-----|-----|-----|


  |-3|    |--3-|  |-3|    |--3-|     |-3|    |--3-|  |-3|    |--3-|   
  E  Q    Q    E  E  Q    Q    E     E  Q    Q    E  E  Q    Q    E   
----------------------------------|----------------------------------|
----------0---------------0-------|----------0---------------0-------|
---------------0---------------0--|---------------0---------------0--|
--5--5------------5--5------------|--5--5------------5--5------------|
--3--3------------3--3------------|--3--3------------3--3------------|
----------------------------------|----------------------------------|


  |-3|         |-3|            |-3|         |-3|          
  E  Q    Q    E  Q    Q       E  Q    Q    E  Q    Q     
----------------------------|----------------------------|
----------0------------0----|----------0------------0----|
----------------------------|----------------------------|
--7--7---------7--7---------|--7--7---------7--7---------|
--5--5---------5--5---------|--5--5---------5--5---------|
----------------------------|----------------------------|


  |-3|    |--3-|  |-3|    |--3-|     |-3|    |--3-|  |-3|    |--3-|   
  E  Q    Q    E  E  Q    Q    E     E  Q    Q    E  E  Q    Q    E   
----------------------------------|----------------------------------|
----------0---------------0-------|----------0---------------0-------|
---------------0---------------0--|---------------0---------------0--|
--9--9------------9--9------------|--9--9------------9--9------------|
--7--7------------7--7------------|--7--7------------7--7------------|
----------------------------------|----------------------------------|


  |-3|         |-3|            |-3|         |-3|          
  E  Q    Q    E  Q    Q       E  Q    Q    E  Q    Q     
----------------------------|----------------------------|
----------0------------0----|----------0------------0----|
----------------------------|----------------------------|
--4--4---------4--4---------|--4--4---------4--4---------|
--2--2---------2--2---------|--2--2---------2--2---------|
----------------------------|----------------------------|


  |--3--|  |--3--|  |--3--|  |--3--|     |--3--|  |--3--|  |--3--|  |--3--|   
  E  E  E  E  E  E  E  E  E  E  E  E     E  E  E  E  E  E  E  E  E  E  E  E   
--------------------------------------|--------------------------------------|
--------------------------------------|--------------------------------------|
--------------------------------------|--------------------------------------|
--5--5--5--5--5--5--5--5--5--5--5--5--|--5--5--5--5--5--5--5--5--5--5--5--5--|
--3--3--3--3--3--3--3--3--3--3--3--3--|--3--3--3--3--3--3--3--3--3--3--3--3--|
--------------------------------------|--------------------------------------|


  |--3--|  |--3--|  |--3--|  |--3--|   
  E  E  E  E  E  E  E  E  E  E  E  E   
--------------------------------------|
--------------------------------------|
--------------------------------------|
--7--7--7--7--7--7--7--7--7--7--7--7--|
--5--5--5--5--5--5--5--5--5--5--5--5--|
--------------------------------------|


  |--3--|  |--3--|    |---3---|   |---3---|   
  E  E  E  E  E  E    E   E   E   E   E   E   
---------------------------------------------|
---------------------------------------------|
---------------------11--11--11--11--11--11--|
--7--7--7--7--7--7---------------------------|
--5--5--5--5--5--5s---9---9---9---9---9---9--|
---------------------------------------------|


  |--3--|  |--3--|  |--3--|  |--3--|     |--3--|  |--3--|  |--3--|  |--3--|   
  E  E  E  E  E  E  E  E  E  E  E  E     E  E  E  E  E  E  E  E  E  E  E  E   
--------------------------------------|--------------------------------------|
--------------------------------------|--------------------------------------|
--------------------------------------|--------------------------------------|
--9--9--9--9--9--9--9--9--9--9--9--9--|--9--9--9--9--9--9--9--9--9--9--9--9--|
--7--7--7--7--7--7--7--7--7--7--7--7--|--7--7--7--7--7--7--7--7--7--7--7--7--|
--0--0--0--0--0--0--0--0--0--0--0--0--|--0--0--0--0--0--0--0--0--0--0--0--0--|


  |--3--|  |--3--|   |--3--|  |--3--|    
  E  E  E  E  E  E   E  E  E  E  E  E    
----------------------------------------|
----------------------------------------|
--4--4--4--4--4--4s--5--5--5--5--5--5s--|
----------------------------------------|
--2--2--2--2--2--2s--3--3--3--3--3--3s--|
----------------------------------------|


  |--3--|  |--3--|    |---3---|   |---3---|   
  E  E  E  E  E  E    E   E   E   E   E   E   
---------------------------------------------|
---------------------------------------------|
--7--7--7--7--7--7s--14--14--14--14--14--14--|
---------------------------------------------|
--5--5--5--5--5--5s--12--12--12--12--12--12--|
---------------------------------------------|


   |---3---|   |---3---|   |---3---|   |---3---|   
   E   E   E   E   E   E   E   E   E   E   E   E   
--------------------------------------------------|
--------------------------------------------------|
--12--12--12--12--12--12--12--12--12--12--12--12--|
--------------------------------------------------|
--10--10--10--10--10--10--10--10--10--10--10--10--|
--------------------------------------------------|


   |---3---|   |---3---|   |---3---|   |---3---|    
   E   E   E   E   E   E   E   E   E   E   E   E    
---------------------------------------------------|
---------------------------------------------------|
--12--12--12--12--12--12--12--12--12--12--12--12s--|
---------------------------------------------------|
--10--10--10--10--10--10--10--10--10--10--10--10s--|
---------------------------------------------------|


   |---3---|   |---3---|   |---3---|   |---3---|   
   E   E   E   E   E   E   E   E   E   E   E   E   
--------------------------------------------------|
--------------------------------------------------|
--14--14--14--14--14--14--14--14--14--14--14--14--|
--------------------------------------------------|
--12--12--12--12--12--12--12--12--12--12--12--12--|
--------------------------------------------------|


   |---3---|   |---3---|   |---3---|   |---3---|   
   E   E   E   E   E   E   E   E   E   E   E   E   
--------------------------------------------------|
--------------------------------------------------|
--14--14--14--14--14--14--14--14--14--14--14--14--|
--------------------------------------------------|
--12--12--12--12--12--12--12--12--12--12--12--12--|
--------------------------------------------------|


   |---3---|   |---3---|   |---3---|   |---3---|   
   E   E   E   E   E   E   E   E   E   E   E   E   
--------------------------------------------------|
--------------------------------------------------|
--16--16--16--16--16--16--16--16--16--16--16--16--|
--------------------------------------------------|
--14--14--14--14--14--14--14--14--14--14--14--14--|
--------------------------------------------------|


   |---3---|   |---3---|   |---3---|   |---3---|   
   E   E   E   E   E   E   E   E   E   E   E   E   
--------------------------------------------------|
--------------------------------------------------|
--16--16--16--16--16--16--16--16--16--16--16--16--|
--------------------------------------------------|
--14--14--14--14--14--14--14--14--14--14--14--14--|
--------------------------------------------------|


   |---3---|   |---3---|   |---3---|   |---3---|   
   E   E   E   E   E   E   E   E   E   E   E   E   
--------------------------------------------------|
--------------------------------------------------|
--16--16--16--16--16--16--16--16--16--16--16--16--|
--------------------------------------------------|
--14--14--14--14--14--14--14--14--14--14--14--14--|
--------------------------------------------------|


   |---3---|   |---3---|   |---3---|   |---3---|   
   E   E   E   E   E   E   E   E   E   E   E   E   
--------------------------------------------------|
--------------------------------------------------|
--16--16--16--16--16--16--16--16--16--16--16--16--|
--------------------------------------------------|
--14--14--14--14--14--14--14--14--14--14--14--14--|
--------------------------------------------------|


  |--3--|  |--3--|  |--3--|  |--3--|     |--3--|  |--3--|  |--3--|  |--3--|   
  E  E  E  E  E  E  E  E  E  E  E  E     E  E  E  E  E  E  E  E  E  E  E  E   
--------------------------------------|--------------------------------------|
--------------------------------------|--------------------------------------|
--------------------------------------|--------------------------------------|
--2--2--2--2--2--2--2--2--2--2--2--2--|--4--4--4--4--4--4--4--4--4--4--4--4--|
--0--0--0--0--0--0--0--0--0--0--0--0--|--2--2--2--2--2--2--2--2--2--2--2--2--|
--------------------------------------|--------------------------------------|


  |--3--|  |--3--|  |--3--|  |--3--|     |--3--|  |--3--|  |--3--|  |--3--|   
  E  E  E  E  E  E  E  E  E  E  E  E     E  E  E  E  E  E  E  E  E  E  E  E   
--------------------------------------|--------------------------------------|
--------------------------------------|--------------------------------------|
--------------------------------------|--------------------------------------|
--9--9--9--9--9--9--9--9--9--9--9--9--|--9--9--9--9--9--9--9--9--9--9--9--9--|
--7--7--7--7--7--7--7--7--7--7--7--7--|--7--7--7--7--7--7--7--7--7--7--7--7--|
--0--0--0--0--0--0--0--0--0--0--0--0--|--0--0--0--0--0--0--0--0--0--0--0--0--|


  |--3--|  |--3--|  |--3--|  |--3--|     |--3--|  |--3--|  |--3--|  |--3--|   
  E  E  E  E  E  E  E  E  E  E  E  E     E  E  E  E  E  E  E  E  E  E  E  E   
--------------------------------------|--------------------------------------|
--------------------------------------|--------------------------------------|
--------------------------------------|--------------------------------------|
--5--5--5--5--5--5--5--5--5--5--5--5--|--7--7--7--7--7--7--7--7--7--7--7--7--|
--3--3--3--3--3--3--3--3--3--3--3--3--|--5--5--5--5--5--5--5--5--5--5--5--5--|
--------------------------------------|--------------------------------------|


  H        H           H        H         
--------------------|--------------------|
--------------------|--------------------|
--------------------|--------------------|
--------------------|--------------------|
--2--------4--------|--5--------7--------|
--0--------2--------|--3--------5--------|


  |--3--|  |--3--|  |--3--|  |--3--|     |--3--|  |--3--|  |--3--|  |--3--|   
  E  E  E  E  E  E  E  E  E  E  E  E     E  E  E  E  E  E  E  E  E  E  E  E   
--------------------------------------|--------------------------------------|
--------------------------------------|--------------------------------------|
--------------------------------------|--------------------------------------|
--5--5--5--5--5--5--5--5--5--5--5--5--|--4--4--4--4--4--4--7--7--7--7--7--7--|
--3--3--3--3--3--3--3--3--3--3--3--3--|--2--2--2--2--2--2--5--5--5--5--5--5--|
--------------------------------------|--------------------------------------|


  |--3--|  |--3--|  |--3--|  |--3--|     |--3--|  |--3--|  |--3--|  |--3--|   
  E  E  E  E  E  E  E  E  E  E  E  E     E  E  E  E  E  E  E  E  E  E  E  E   
--------------------------------------|--------------------------------------|
--------------------------------------|--------------------------------------|
--------------------------------------|--------------------------------------|
--9--9--9--9--9--9--9--9--9--9--9--9--|--9--9--9--9--9--9--9--9--9--9--9--9--|
--7--7--7--7--7--7--7--7--7--7--7--7--|--7--7--7--7--7--7--7--7--7--7--7--7--|
--0--0--0--0--0--0--0--0--0--0--0--0--|--0--0--0--0--0--0--0--0--0--0--0--0--|


  |--3--|  |--3--|  |--3--|  |--3--|     |--3--|  |--3--|  |--3--|  |--3--|   
  E  E  E  E  E  E  E  E  E  E  E  E     E  E  E  E  E  E  E  E  E  E  E  E   
--------------------------------------|--------------------------------------|
--------------------------------------|--------------------------------------|
--------------------------------------|--------------------------------------|
--5--5--5--5--5--5--5--5--5--5--5--5--|--7--7--7--7--7--7--7--7--7--7--7--7--|
--3--3--3--3--3--3--3--3--3--3--3--3--|--5--5--5--5--5--5--5--5--5--5--5--5--|
--------------------------------------|--------------------------------------|


  |--3--|  |--3--|  |--3--|  |--3--|     |--3--|  |--3--|  |----3----|     
  E  E  E  E  E  E  E  E  E  E  E  E     E  E  E  E  E  E  Q    Q    Q     
--------------------------------------|-----------------------------------|
--------------------------------------|-----------------------------------|
--------------------------------------|-----------------------------------|
--9--9--9--9--9--9--9--9--9--9--9--9--|--9--9--9--9--9--9--9----9----9----|
--7--7--7--7--7--7--7--7--7--7--7--7--|--7--7--7--7--7--7--7----7----7----|
--0--0--0--0--0--0--0--0--0--0--0--0--|--0--0--0--0--0--0--0----0----0----|


  ---            |-3-| |-3-| |-3-| |-3-|    -- 
        H        S S S S S S S S S S S S       
-----|-----------------------------------|----|
-----|-----------------------------------|----|
-----|-----------5-5-5-5-5-5-5-5-5-5-5-5-|----|
-----|-----------5-5-5-5-5-5-5-5-5-5-5-5-|----|
-----|-----------3-3-3-3-3-3-3-3-3-3-3-3-|----|
-----|-----------------------------------|----|


           |-3-| |-3-| |-3-| |-3-|    --   -- 
  H        S S S S S S S S S S S S            
-----------------------------------|----|----|
-----------------------------------|----|----|
-----------5-5-5-5-5-5-5-5-5-5-5-5-|----|----|
-----------5-5-5-5-5-5-5-5-5-5-5-5-|----|----|
-----------3-3-3-3-3-3-3-3-3-3-3-3-|----|----|
-----------------------------------|----|----|


  |-3-| |-3-| |-3-| |-3-|  |---3---|   |---3---|   
  S S S S S S S S S S S S  E   E   E   E   E   E   
--------------------------------------------------|
--------------------------------------------------|
--5-5-5-5-5-5-5-5-5-5-5-5-16--16--16--16--16--16--|
--5-5-5-5-5-5-5-5-5-5-5-5-------------------------|
--3-3-3-3-3-3-3-3-3-3-3-3-14--14--14--14--14--14--|
--------------------------------------------------|


   |---3---|   |---3---|   |---3---|   |---3---|   
   E   E   E   E   E   E   E   E   E   E   E   E   
--------------------------------------------------|
--------------------------------------------------|
--16--16--16--16--16--16--14--14--14--14--14--14--|
--------------------------------------------------|
--14--14--14--14--14--14--12--12--12--12--12--12--|
--------------------------------------------------|


   |---3---|   |---3---|              ---   --- 
   E   E   E   E   E   E  H                     
-----------------------------------|-----|-----|
-----------------------------------|-----|-----|
--12--12--12--12--12--12-----------|-----|-----|
-----------------------------------|-----|-----|
--10--10--10--10--10--10-----------|-----|-----|
-----------------------------------|-----|-----|


  |--3--|  |--3--|  |--3--|  |--3--|     |--3--|  |--3--|  |--3--|  |--3--|   
  E  E  E  E  E  E  E  E  E  E  E  E     E  E  E  E  E  E  E  E  E  E  E  E   
--------------------------------------|--------------------------------------|
--------------------------------------|--------------------------------------|
--------------------------------------|--------------------------------------|
--5--5--5--5--5--5--5--5--5--5--5--5--|--5--5--5--5--5--5--5--5--5--5--5--5--|
--3--3--3--3--3--3--3--3--3--3--3--3--|--3--3--3--3--3--3--3--3--3--3--3--3--|
--------------------------------------|--------------------------------------|


  |--3--|  |--3--|  |--3--|  |--3--|   
  E  E  E  E  E  E  E  E  E  E  E  E   
--------------------------------------|
--------------------------------------|
--------------------------------------|
--7--7--7--7--7--7--7--7--7--7--7--7--|
--5--5--5--5--5--5--5--5--5--5--5--5--|
--------------------------------------|


  |--3--|  |--3--|    |---3---|   |---3---|   
  E  E  E  E  E  E    E   E   E   E   E   E   
---------------------------------------------|
---------------------------------------------|
-----------7--7--7s--11--11--11--11--11--11--|
--7--7--7--7--7--7---------------------------|
--5--5--5--5--5--5s---9---9---9---9---9---9--|
---------------------------------------------|


  |--3--|  |--3--|  |--3--|  |--3--|     |--3--|  |--3--|  |--3--|  |--3--|   
  E  E  E  E  E  E  E  E  E  E  E  E     E  E  E  E  E  E  E  E  E  E  E  E   
--------------------------------------|--------------------------------------|
--------------------------------------|--------------------------------------|
--------------------------------------|--------------------------------------|
--9--9--9--9--9--9--9--9--9--9--9--9--|--9--9--9--9--9--9--9--9--9--9--9--9--|
--7--7--7--7--7--7--7--7--7--7--7--7--|--7--7--7--7--7--7--7--7--7--7--7--7--|
--0--0--0--0--0--0--0--0--0--0--0--0--|--0--0--0--0--0--0--0--0--0--0--0--0--|


  |--3--|  |--3--|   |--3--|  |--3--|    
  E  E  E  E  E  E   E  E  E  E  E  E    
----------------------------------------|
----------------------------------------|
--4--4--4--4--4--4s--5--5--5--5--5--5s--|
----------------------------------------|
--2--2--2--2--2--2s--3--3--3--3--3--3s--|
----------------------------------------|


  |--3--|  |--3--|    |---3---|   |---3---|   
  E  E  E  E  E  E    E   E   E   E   E   E   
---------------------------------------------|
---------------------------------------------|
--7--7--7--7--7--7s--14--14--14--14--14--14--|
---------------------------------------------|
--5--5--5--5--5--5s--12--12--12--12--12--12--|
---------------------------------------------|


  |--3--|  |--3--|  |--3--|  |--3--|     |--3--|  |--3--|  |--3--|  |--3--|   
  E  E  E  E  E  E  E  E  E  E  E  E     E  E  E  E  E  E  E  E  E  E  E  E   
--------------------------------------|--------------------------------------|
--------------------------------------|--------------------------------------|
--------------------------------------|--------------------------------------|
--5--5--5--5--5--5--5--5--5--5--5--5--|--5--5--5--5--5--5--5--5--5--5--5--5--|
--3--3--3--3--3--3--3--3--3--3--3--3--|--3--3--3--3--3--3--3--3--3--3--3--3--|
--------------------------------------|--------------------------------------|


  |--3--|  |--3--|  |--3--|  |--3--|   
  E  E  E  E  E  E  E  E  E  E  E  E   
--------------------------------------|
--------------------------------------|
--------------------------------------|
--7--7--7--7--7--7--7--7--7--7--7--7--|
--5--5--5--5--5--5--5--5--5--5--5--5--|
--------------------------------------|


  |--3--|  |--3--|    |---3---|   |---3---|   
  E  E  E  E  E  E    E   E   E   E   E   E   
---------------------------------------------|
---------------------------------------------|
-----------7--7--7s--11--11--11--11--11--11--|
--7--7--7--7--7--7---------------------------|
--5--5--5--5--5--5s---9---9---9---9---9---9--|
---------------------------------------------|


  |--3--|  |--3--|  |--3--|  |--3--|     |--3--|  |--3--|  |--3--|  |--3--|    
  E  E  E  E  E  E  E  E  E  E  E  E     E  E  E  E  E  E  E  E  E  E  E  E    
--------------------------------------|---------------------------------------|
--------------------------------------|---------------------------------------|
--------------------------------------|--------------------9--9--9--9--9--9s--|
--9--9--9--9--9--9--9--9--9--9--9--9--|--9--9--9--9--9--9--9--9--9--9--9--9---|
--7--7--7--7--7--7--7--7--7--7--7--7--|--7--7--7--7--7--7--7--7--7--7--7--7s--|
--0--0--0--0--0--0--0--0--0--0--0--0--|--0--0--0--0--0--0--0--0--0--0--0--0---|


   |---3---|   |---3---|   |---3---|   |---3---|   
   E   E   E   E   E   E   E   E   E   E   E   E   
--------------------------------------------------|
--------------------------------------------------|
--16--16--16--16--16--16--16--16--16--16--16--16--|
--------------------------------------------------|
--14--14--14--14--14--14--14--14--14--14--14--14--|
--------------------------------------------------|


   |---3---|   |---3---|   |---3---|   |---3---|   
   E   E   E   E   E   E   E   E   E   E   E   E   
--------------------------------------------------|
--------------------------------------------------|
--16--16--16--16--16--16--16--16--16--16--16--16--|
--------------------------------------------------|
--14--14--14--14--14--14--14--14--14--14--14--14--|
--------------------------------------------------|


   |---3---|   |---3---|   |---3---|   |---3---|   
   E   E   E   E   E   E   E   E   E   E   E   E   
--------------------------------------------------|
--------------------------------------------------|
--12--12--12--12--12--12--12--12--12--12--12--12--|
--------------------------------------------------|
--10--10--10--10--10--10--10--10--10--10--10--10--|
--------------------------------------------------|


   |---3---|   |---3---|   |---3---|   |---3---|   
   E   E   E   E   E   E   E   E   E   E   E   E   
--------------------------------------------------|
--------------------------------------------------|
--12--12--12--12--12--12--12--12--12--12--12--12--|
--------------------------------------------------|
--10--10--10--10--10--10--10--10--10--10--10--10--|
--------------------------------------------------|


   |---3---|   |---3---|   |---3---|   |---3---|   
   E   E   E   E   E   E   E   E   E   E   E   E   
--------------------------------------------------|
--------------------------------------------------|
--12--12--12--12--12--12--12--12--12--12--12--12--|
--------------------------------------------------|
--10--10--10--10--10--10--10--10--10--10--10--10--|
--------------------------------------------------|


   |---3---|   |---3---|    |---3---|   |---3---|    
   E   E   E   E   E   E    E   E   E   E   E   E    
----------------------------------------------------|
----------------------------------------------------|
--12--12--12--12--12--12s--14--14--14--14--14--14s--|
----------------------------------------------------|
--10--10--10--10--10--10s--12--12--12--12--12--12s--|
----------------------------------------------------|


  |--3--|  |--3--|  |--3--|  |--3--|    
  E  E  E  E  E  E  E  E  E  E  E  E    
---------------------------------------|
---------------------------------------|
--9--9--9--9--9--9--9--9--9--9--9--9s--|
---------------------------------------|
--7--7--7--7--7--7--7--7--7--7--7--7s--|
---------------------------------------|


   |---3---|   |---3---|   |---3---|   |---3---|    
   E   E   E   E   E   E   E   E   E   E   E   E    
---------------------------------------------------|
---------------------------------------------------|
--11--11--11--11--11--11--11--11--11--11--11--11s--|
---------------------------------------------------|
---9---9---9---9---9---9---9---9---9---9---9---9s--|
---------------------------------------------------|


   |---3---|   |---3---|   |---3---|   |---3---|   
   E   E   E   E   E   E   E   E   E   E   E   E   
--------------------------------------------------|
--------------------------------------------------|
--16--16--16--16--16--16--16--16--16--16--16--16--|
--------------------------------------------------|
--14--14--14--14--14--14--14--14--14--14--14--14--|
--------------------------------------------------|


   |---3---|   |---3---|   |---3---|   |---3---|     ---   ---   ---   --- 
   E   E   E   E   E   E   E   E   E   E   E   E                           
--------------------------------------------------|-----|-----|-----|-----|
--------------------------------------------------|-----|-----|-----|-----|
--16--16--16--16--16--16--16--16--16--16--16--16--|-----|-----|-----|-----|
--------------------------------------------------|-----|-----|-----|-----|
--14--14--14--14--14--14--14--14--14--14--14--14--|-----|-----|-----|-----|
--------------------------------------------------|-----|-----|-----|-----|


  ---   ---   ---   ---   ---  
-----|-----|-----|-----|-----||
-----|-----|-----|-----|-----||
-----|-----|-----|-----|-----||
-----|-----|-----|-----|-----||
-----|-----|-----|-----|-----||
-----|-----|-----|-----|-----||





Lead Guitar



     W                   W                   W                 
E||-------------------|-------------------|-------------------|
B||-------------------|-------------------|-------------------|
G||-------------------|-------------------|-------------------|
D||-------------------|-------------------|-------------------|
A||-------------------|-------------------|-------------------|
E||-------------------|-------------------|-------------------|


  W                   W                   W                   W                 
-------------------|-------------------|-------------------|-------------------|
-------------------|-------------------|-------------------|-------------------|
-------------------|-------------------|-------------------|-------------------|
-------------------|-------------------|-------------------|-------------------|
-------------------|-------------------|-------------------|-------------------|
-------------------|-------------------|-------------------|-------------------|


  W                   W                   W                   W                 
-------------------|-------------------|-------------------|-------------------|
-------------------|-------------------|-------------------|-------------------|
-------------------|-------------------|-------------------|-------------------|
-------------------|-------------------|-------------------|-------------------|
-------------------|-------------------|-------------------|-------------------|
-------------------|-------------------|-------------------|-------------------|


  W                   W                   W                   W                 
-------------------|-------------------|-------------------|-------------------|
-------------------|-------------------|-------------------|-------------------|
-------------------|-------------------|-------------------|-------------------|
-------------------|-------------------|-------------------|-------------------|
-------------------|-------------------|-------------------|-------------------|
-------------------|-------------------|-------------------|-------------------|


                      |--3--|  |--3--|  |--3--|  |--3--|   
  W                   E  E  E  E  E  E  E  E  E  E  E  E   
-------------------|--------------------------------------|
-------------------|--------------------------------------|
-------------------|--------------------------------------|
-------------------|--5--5--5--5--5--5--5--5--5--5--5--5--|
-------------------|--3--3--3--3--3--3--3--3--3--3--3--3--|
-------------------|--------------------------------------|


  |--3--|  |--3--|  |--3--|  |--3--|     |--3--|  |--3--|  |--3--|  |--3--|   
  E  E  E  E  E  E  E  E  E  E  E  E     E  E  E  E  E  E  E  E  E  E  E  E   
--------------------------------------|--------------------------------------|
--------------------------------------|--------------------------------------|
--------------------------------------|--------------------------------------|
--5--5--5--5--5--5--5--5--5--5--5--5--|--7--7--7--7--7--7--7--7--7--7--7--7--|
--3--3--3--3--3--3--3--3--3--3--3--3--|--5--5--5--5--5--5--5--5--5--5--5--5--|
--------------------------------------|--------------------------------------|


  |--3--|  |--3--|    |---3---|   |---3---|   
  E  E  E  E  E  E    E   E   E   E   E   E   
---------------------------------------------|
---------------------------------------------|
---------------------11--11--11--11--11--11--|
--7--7--7--7--7--7---------------------------|
--5--5--5--5--5--5s---9---9---9---9---9---9--|
---------------------------------------------|


  |--3--|  |--3--|  |--3--|  |--3--|     |--3--|  |--3--|  |--3--|  |--3--|   
  E  E  E  E  E  E  E  E  E  E  E  E     E  E  E  E  E  E  E  E  E  E  E  E   
--------------------------------------|--------------------------------------|
--------------------------------------|--------------------------------------|
--------------------------------------|--------------------------------------|
--9--9--9--9--9--9--9--9--9--9--9--9--|--9--9--9--9--9--9--9--9--9--9--9--9--|
--7--7--7--7--7--7--7--7--7--7--7--7--|--7--7--7--7--7--7--7--7--7--7--7--7--|
--0--0--0--0--0--0--0--0--0--0--0--0--|--0--0--0--0--0--0--0--0--0--0--0--0--|


  |--3--|  |--3--|  |--3--|  |--3--|     |--3--|  |--3--|  |--3--|  |--3--|   
  E  E  E  E  E  E  E  E  E  E  E  E     E  E  E  E  E  E  E  E  E  E  E  E   
--------------------------------------|--------------------------------------|
--------------------------------------|--------------------------------------|
--------------------------------------|--------------------------------------|
--4--4--4--4--4--4--4--4--4--4--4--4--|--4--4--4--4--4--4--4-----------------|
--2--2--2--2--2--2--2--2--2--2--2--2--|--2--2--2--2--2--2--2-----------------|
--------------------------------------|--------------------------------------|


   |---3---|   |----3---|   |---3---|   |----3---|   
   E   E   E   E    E   E   E   E   E   E    E   E   
----------------------------------------------------|
----------------------------------------------------|
--12p--9-------------------12p--9-------------------|
----------10p--9h--10p--9----------10p--9h--10p--9--|
----------------------------------------------------|
----------------------------------------------------|


   |---3---|   |----3---|   |---3---|   |----3---|   
   E   E   E   E    E   E   E   E   E   E    E   E   
----------------------------------------------------|
----------------------------------------------------|
--12p--9-------------------12p--9-------------------|
----------10p--9h--10p--9----------10p--9h--10p--9--|
----------------------------------------------------|
----------------------------------------------------|


  |----3---|   |-3|    |----3---|   |-3|     
  E    E   E   E  Q    E    E   E   E  Q     
--------------------------------------------|
--------------------------------------------|
--------------12-------------------12-------|
--9h--10p--9------9----9h--10p--9------9----|
--------------------------------------------|
--------------------------------------------|


  |----3---|   |-3|    |----3---|   |-3|     
  E    E   E   E  Q    E    E   E   E  Q     
--------------------------------------------|
--------------------------------------------|
--------------12-------------------12-------|
--9h--10p--9------9----9h--10p--9------9----|
--------------------------------------------|
--------------------------------------------|


   |---3---|   |----3---|   |---3---|   |----3---|   
   E   E   E   E    E   E   E   E   E   E    E   E   
----------------------------------------------------|
----------------------------------------------------|
--12p--9-------------------12p--9-------------------|
----------10p--9h--10p--9----------10p--9h--10p--9--|
----------------------------------------------------|
----------------------------------------------------|


   |---3---|   |----3---|   |---3---|   |----3---|   
   E   E   E   E    E   E   E   E   E   E    E   E   
----------------------------------------------------|
----------------------------------------------------|
--12p--9-------------------12p--9-------------------|
----------10p--9h--10p--9----------10p--9h--10p--9--|
----------------------------------------------------|
----------------------------------------------------|


  |----3---|   |-3|    |----3---|   |-3|     
  E    E   E   E  Q    E    E   E   E  Q     
--------------------------------------------|
--------------------------------------------|
--------------12-------------------12-------|
--9h--10p--9------9----9h--10p--9------9----|
--------------------------------------------|
--------------------------------------------|


  |----3---|   |-3|    |----3---|   |-3|     
  E    E   E   E  Q    E    E   E   E  Q     
--------------------------------------------|
--------------10-------------------12-------|
--------------------------------------------|
--9h--10p--9------9----9h--10p--9------9----|
--------------------------------------------|
--------------------------------------------|


   |---3---|   |----3---|   |---3---|   |----3---|   
   E   E   E   E    E   E   E   E   E   E    E   E   
----------------------------------------------------|
----------------------------------------------------|
--12p--9-------------------12p--9-------------------|
----------10p--9h--10p--9----------10p--9h--10p--9--|
----------------------------------------------------|
----------------------------------------------------|


   |---3---|   |----3---|   |---3---|   |----3---|   
   E   E   E   E    E   E   E   E   E   E    E   E   
----------------------------------------------------|
----------------------------------------------------|
--12p--9-------------------12p--9-------------------|
----------10p--9h--10p--9----------10p--9h--10p--9--|
----------------------------------------------------|
----------------------------------------------------|


  |----3---|   |-3|    |----3---|   |-3|     
  E    E   E   E  Q    E    E   E   E  Q     
--------------------------------------------|
--------------------------------------------|
--------------12-------------------12-------|
--9h--10p--9------9----9h--10p--9------9----|
--------------------------------------------|
--------------------------------------------|


  |----3---|   |-3|    |----3---|   |-3|     
  E    E   E   E  Q    E    E   E   E  Q     
--------------------------------------------|
--------------------------------------------|
--------------12-------------------12-------|
--9h--10p--9------9----9h--10p--9------9----|
--------------------------------------------|
--------------------------------------------|


   |---3---|   |----3---|   |---3---|   |----3---|   
   E   E   E   E    E   E   E   E   E   E    E   E   
----------------------------------------------------|
----------------------------------------------------|
--12p--9-------------------12p--9-------------------|
----------10p--9h--10p--9----------10p--9h--10p--9--|
----------------------------------------------------|
----------------------------------------------------|


   |---3---|   |----3---|   |---3---|   |----3---|   
   E   E   E   E    E   E   E   E   E   E    E   E   
----------------------------------------------------|
----------------------------------------------------|
--12p--9-------------------12p--9-------------------|
----------10p--9h--10p--9----------10p--9h--10p--9--|
----------------------------------------------------|
----------------------------------------------------|


  |----3---|   |-3|    |----3---|   |-3|     
  E    E   E   E  Q    E    E   E   E  Q     
--------------------------------------------|
--------------------------------------------|
--------------12-------------------12-------|
--9h--10p--9------9----9h--10p--9------9----|
--------------------------------------------|
--------------------------------------------|


  |----3---|   |-3|    |----3---|   |-3|     
  E    E   E   E  Q    E    E   E   E  Q     
--------------------------------------------|
--------------10-------------------12-------|
--------------------------------------------|
--9h--10p--9------9----9h--10p--9------9----|
--------------------------------------------|
--------------------------------------------|


  |--3--|  |--3--|  |--3--|  |--3--|     |--3--|  |--3--|  |--3--|  |--3--|   
  E  E  E  E  E  E  E  E  E  E  E  E     E  E  E  E  E  E  E  E  E  E  E  E   
--------------------------------------|--------------------------------------|
--------------------------------------|--------------------------------------|
--------------------------------------|--------------------------------------|
--5--5--5--5--5--5--5--5--5--5--5--5--|--5--5--5--5--5--5--5--5--5--5--5--5--|
--3--3--3--3--3--3--3--3--3--3--3--3--|--3--3--3--3--3--3--3--3--3--3--3--3--|
--------------------------------------|--------------------------------------|


  |--3--|  |--3--|  |--3--|  |--3--|   
  E  E  E  E  E  E  E  E  E  E  E  E   
--------------------------------------|
--------------------------------------|
--------------------------------------|
--7--7--7--7--7--7--7--7--7--7--7--7--|
--5--5--5--5--5--5--5--5--5--5--5--5--|
--------------------------------------|


  |--3--|  |--3--|    |---3---|   |---3---|   
  E  E  E  E  E  E    E   E   E   E   E   E   
---------------------------------------------|
---------------------------------------------|
---------------------11--11--11--11--11--11--|
--7--7--7--7--7--7---------------------------|
--5--5--5--5--5--5s---9---9---9---9---9---9--|
---------------------------------------------|


  |--3--|  |--3--|  |--3--|  |--3--|     |--3--|  |--3--|  |--3--|  |--3--|   
  E  E  E  E  E  E  E  E  E  E  E  E     E  E  E  E  E  E  E  E  E  E  E  E   
--------------------------------------|--------------------------------------|
--------------------------------------|--------------------------------------|
--------------------------------------|--------------------------------------|
--9--9--9--9--9--9--9--9--9--9--9--9--|--9--9--9--9--9--9--9--9--9--9--9--9--|
--7--7--7--7--7--7--7--7--7--7--7--7--|--7--7--7--7--7--7--7--7--7--7--7--7--|
--0--0--0--0--0--0--0--0--0--0--0--0--|--0--0--0--0--0--0--0--0--0--0--0--0--|


  |--3--|  |--3--|   |--3--|  |--3--|    
  E  E  E  E  E  E   E  E  E  E  E  E    
----------------------------------------|
----------------------------------------|
--4--4--4--4--4--4s--5--5--5--5--5--5s--|
----------------------------------------|
--2--2--2--2--2--2s--3--3--3--3--3--3s--|
----------------------------------------|


  |--3--|  |--3--|    |---3---|   |---3---|   
  E  E  E  E  E  E    E   E   E   E   E   E   
---------------------------------------------|
---------------------------------------------|
--7--7--7--7--7--7s--14--14--14--14--14--14--|
---------------------------------------------|
--5--5--5--5--5--5s--12--12--12--12--12--12--|
---------------------------------------------|


  |--3--|  |--3--|  |--3--|  |--3--|     |--3--|  |--3--|  |--3--|  |--3--|   
  E  E  E  E  E  E  E  E  E  E  E  E     E  E  E  E  E  E  E  E  E  E  E  E   
--------------------------------------|--------------------------------------|
--------------------------------------|--------------------------------------|
--------------------------------------|--------------------------------------|
--5--5--5--5--5--5--5--5--5--5--5--5--|--5--5--5--5--5--5--5--5--5--5--5--5--|
--3--3--3--3--3--3--3--3--3--3--3--3--|--3--3--3--3--3--3--3--3--3--3--3--3--|
--------------------------------------|--------------------------------------|


  |--3--|  |--3--|  |--3--|  |--3--|   
  E  E  E  E  E  E  E  E  E  E  E  E   
--------------------------------------|
--------------------------------------|
--------------------------------------|
--7--7--7--7--7--7--7--7--7--7--7--7--|
--5--5--5--5--5--5--5--5--5--5--5--5--|
--------------------------------------|


  |--3--|  |--3--|    |---3---|   |---3---|   
  E  E  E  E  E  E    E   E   E   E   E   E   
---------------------------------------------|
---------------------------------------------|
---------------------11--11--11--11--11--11--|
--7--7--7--7--7--7---------------------------|
--5--5--5--5--5--5s---9---9---9---9---9---9--|
---------------------------------------------|


  |--3--|  |--3--|  |--3--|  |--3--|   
  E  E  E  E  E  E  E  E  E  E  E  E   
--------------------------------------|
--------------------------------------|
--------------------------------------|
--9--9--9--9--9--9--9--9--9--9--9--9--|
--7--7--7--7--7--7--7--7--7--7--7--7--|
--0--0--0--0--0--0--0--0--0--0--0--0--|


   |---3---|   |---3---|   |---3---|   |---3---|    
   E   E   E   E   E   E   E   E   E   E   E   E    
---------------------------------------------------|
---------------------------------------------------|
--11--11--11--11--11--11--11--11--11--11--11--11s--|
---------------------------------------------------|
---9---9---9---9---9---9---9---9---9---9---9---9s--|
---------------------------------------------------|


   |---3---|   |---3---|   |---3---|   |---3---|   
   E   E   E   E   E   E   E   E   E   E   E   E   
--------------------------------------------------|
--------------------------------------------------|
--16--16--16--16--16--16--16--16--16--16--16--16--|
--------------------------------------------------|
--14--14--14--14--14--14--14--14--14--14--14--14--|
--------------------------------------------------|


   |---3---|   |---3---|   |---3---|   |---3---|   
   E   E   E   E   E   E   E   E   E   E   E   E   
--------------------------------------------------|
--------------------------------------------------|
--16--16--16--16--16--16--16--16--16--16--16--16--|
--------------------------------------------------|
--14--14--14--14--14--14--14--14--14--14--14--14--|
--------------------------------------------------|


  |--3--|  |--3--|  |--3--|  |--3--|     |--3--|  |--3--|  |--3--|  |--3--|   
  E  E  E  E  E  E  E  E  E  E  E  E     E  E  E  E  E  E  E  E  E  E  E  E   
--------------------------------------|--------------------------------------|
--------------------------------------|--------------------------------------|
--------------------------------------|--------------------------------------|
--2--2--2--2--2--2--2--2--2--2--2--2--|--4--4--4--4--4--4--4--4--4--4--4--4--|
--0--0--0--0--0--0--0--0--0--0--0--0--|--2--2--2--2--2--2--2--2--2--2--2--2--|
--------------------------------------|--------------------------------------|


  |--3--|  |--3--|  |--3--|  |--3--|     |--3--|  |--3--|  |--3--|  |--3--|   
  E  E  E  E  E  E  E  E  E  E  E  E     E  E  E  E  E  E  E  E  E  E  E  E   
--------------------------------------|--------------------------------------|
--------------------------------------|--------------------------------------|
--------------------------------------|--------------------------------------|
--9--9--9--9--9--9--9--9--9--9--9--9--|--9--9--9--9--9--9--9--9--9--9--9--9--|
--7--7--7--7--7--7--7--7--7--7--7--7--|--7--7--7--7--7--7--7--7--7--7--7--7--|
--0--0--0--0--0--0--0--0--0--0--0--0--|--0--0--0--0--0--0--0--0--0--0--0--0--|


  |--3--|  |--3--|  |--3--|  |--3--|     |--3--|  |--3--|  |--3--|  |--3--|   
  E  E  E  E  E  E  E  E  E  E  E  E     E  E  E  E  E  E  E  E  E  E  E  E   
--------------------------------------|--------------------------------------|
--------------------------------------|--------------------------------------|
--------------------------------------|--------------------------------------|
--5--5--5--5--5--5--5--5--5--5--5--5--|--7--7--7--7--7--7--7--7--7--7--7--7--|
--3--3--3--3--3--3--3--3--3--3--3--3--|--5--5--5--5--5--5--5--5--5--5--5--5--|
--------------------------------------|--------------------------------------|


  H        H           H        H         
--------------------|--------------------|
--------------------|--------------------|
--------------------|--------------------|
--------------------|--------------------|
--2--------4--------|--5--------7--------|
--0--------2--------|--3--------5--------|


  |--3--|  |--3--|  |--3--|  |--3--|     |--3--|  |--3--|  |--3--|  |--3--|   
  E  E  E  E  E  E  E  E  E  E  E  E     E  E  E  E  E  E  E  E  E  E  E  E   
--------------------------------------|--------------------------------------|
--------------------------------------|--------------------------------------|
--------------------------------------|--------------------------------------|
--5--5--5--5--5--5--5--5--5--5--5--5--|--4--4--4--4--4--4--7--7--7--7--7--7--|
--3--3--3--3--3--3--3--3--3--3--3--3--|--2--2--2--2--2--2--5--5--5--5--5--5--|
--------------------------------------|--------------------------------------|


  |--3--|  |--3--|  |--3--|  |--3--|     |--3--|  |--3--|  |--3--|  |--3--|   
  E  E  E  E  E  E  E  E  E  E  E  E     E  E  E  E  E  E  E  E  E  E  E  E   
--------------------------------------|--------------------------------------|
--------------------------------------|--------------------------------------|
--------------------------------------|--------------------------------------|
--9--9--9--9--9--9--9--9--9--9--9--9--|--9--9--9--9--9--9--9--9--9--9--9--9--|
--7--7--7--7--7--7--7--7--7--7--7--7--|--7--7--7--7--7--7--7--7--7--7--7--7--|
--0--0--0--0--0--0--0--0--0--0--0--0--|--0--0--0--0--0--0--0--0--0--0--0--0--|


  |--3--|  |--3--|  |--3--|  |--3--|     |--3--|  |--3--|  |--3--|  |--3--|   
  E  E  E  E  E  E  E  E  E  E  E  E     E  E  E  E  E  E  E  E  E  E  E  E   
--------------------------------------|--------------------------------------|
--------------------------------------|--------------------------------------|
--------------------------------------|--------------------------------------|
--5--5--5--5--5--5--5--5--5--5--5--5--|--7--7--7--7--7--7--7--7--7--7--7--7--|
--3--3--3--3--3--3--3--3--3--3--3--3--|--5--5--5--5--5--5--5--5--5--5--5--5--|
--------------------------------------|--------------------------------------|


  |--3--|  |--3--|  |--3--|  |--3--|     |--3--|  |--3--|  |----3----|     
  E  E  E  E  E  E  E  E  E  E  E  E     E  E  E  E  E  E  Q    Q    Q     
--------------------------------------|-----------------------------------|
--------------------------------------|-----------------------------------|
--------------------------------------|-----------------------------------|
--9--9--9--9--9--9--9--9--9--9--9--9--|--9--9--9--9--9--9--9----9----9----|
--7--7--7--7--7--7--7--7--7--7--7--7--|--7--7--7--7--7--7--7----7----7----|
--0--0--0--0--0--0--0--0--0--0--0--0--|--0--0--0--0--0--0--0----0----0----|


  -----            |-3-| |-3-| |-3-| |-3-|                      
          H        S S S S S S S S S S S S    W                 
-------|-----------------------------------|-------------------|
-------|-----------------------------------|-------------------|
-------|-----------5-5-5-5-5-5-5-5-5-5-5-5-|-------------------|
-------|-----------5-5-5-5-5-5-5-5-5-5-5-5-|-------------------|
-------|-----------3-3-3-3-3-3-3-3-3-3-3-3-|-------------------|
-------|-----------------------------------|-------------------|


           |-3-| |-3-| |-3-| |-3-|    --   -- 
  H        S S S S S S S S S S S S            
-----------------------------------|----|----|
-----------------------------------|----|----|
-----------5-5-5-5-5-5-5-5-5-5-5-5-|----|----|
-----------5-5-5-5-5-5-5-5-5-5-5-5-|----|----|
-----------3-3-3-3-3-3-3-3-3-3-3-3-|----|----|
-----------------------------------|----|----|


   |--3--|  |--3--|  |--3--|  |--3--|  |---3---|   |---3---|   
   S  S  S  S  S  S  S  S  S  S  S  S  E   E   E   E   E   E   
--------------------------------------------------------------|
--------------------------------------------------------------|
--17-17-17-17-17-17-17-17-17-17-17-17-16--16--16--16--16--16--|
--------------------------------------------------------------|
--15-15-15-15-15-15-15-15-15-15-15-15-14--14--14--14--14--14--|
--------------------------------------------------------------|


   |---3---|   |---3---|   |---3---|   |---3---|   
   E   E   E   E   E   E   E   E   E   E   E   E   
--------------------------------------------------|
--------------------------------------------------|
--16--16--16--16--16--16--14--14--14--14--14--14--|
--------------------------------------------------|
--14--14--14--14--14--14--12--12--12--12--12--12--|
--------------------------------------------------|


   |---3---|   |---3---|                                            
   E   E   E   E   E   E  H           W                   H         
-----------------------------------|-------------------|-----------|
-----------------------------------|-------------------|-----------|
--12--12--12--12--12--12-----------|-------------------|-----------|
-----------------------------------|-------------------|-----------|
--10--10--10--10--10--10-----------|-------------------|-----------|
-----------------------------------|-------------------|-----------|


  |--3--|  |--3--|  |--3--|  |--3--|     |--3--|  |--3--|  |--3--|  |--3--|   
  E  E  E  E  E  E  E  E  E  E  E  E     E  E  E  E  E  E  E  E  E  E  E  E   
--------------------------------------|--------------------------------------|
--------------------------------------|--------------------------------------|
--------------------------------------|--------------------------------------|
--5--5--5--5--5--5--5--5--5--5--5--5--|--5--5--5--5--5--5--5--5--5--5--5--5--|
--3--3--3--3--3--3--3--3--3--3--3--3--|--3--3--3--3--3--3--3--3--3--3--3--3--|
--------------------------------------|--------------------------------------|


  |--3--|  |--3--|  |--3--|  |--3--|   
  E  E  E  E  E  E  E  E  E  E  E  E   
--------------------------------------|
--------------------------------------|
--------------------------------------|
--7--7--7--7--7--7--7--7--7--7--7--7--|
--5--5--5--5--5--5--5--5--5--5--5--5--|
--------------------------------------|


  |--3--|  |--3--|    |---3---|   |---3---|   
  E  E  E  E  E  E    E   E   E   E   E   E   
---------------------------------------------|
---------------------------------------------|
---------------------11--11--11--11--11--11--|
--7--7--7--7--7--7---------------------------|
--5--5--5--5--5--5s---9---9---9---9---9---9--|
---------------------------------------------|


  |--3--|  |--3--|  |--3--|  |--3--|     |--3--|  |--3--|  |--3--|  |--3--|   
  E  E  E  E  E  E  E  E  E  E  E  E     E  E  E  E  E  E  E  E  E  E  E  E   
--------------------------------------|--------------------------------------|
--------------------------------------|--------------------------------------|
--------------------------------------|--------------------------------------|
--9--9--9--9--9--9--9--9--9--9--9--9--|--9--9--9--9--9--9--9--9--9--9--9--9--|
--7--7--7--7--7--7--7--7--7--7--7--7--|--7--7--7--7--7--7--7--7--7--7--7--7--|
--0--0--0--0--0--0--0--0--0--0--0--0--|--0--0--0--0--0--0--0--0--0--0--0--0--|


  |--3--|  |--3--|   |--3--|  |--3--|    
  E  E  E  E  E  E   E  E  E  E  E  E    
----------------------------------------|
----------------------------------------|
--4--4--4--4--4--4s--5--5--5--5--5--5s--|
----------------------------------------|
--2--2--2--2--2--2s--3--3--3--3--3--3s--|
----------------------------------------|


  |--3--|  |--3--|    |---3---|   |---3---|   
  E  E  E  E  E  E    E   E   E   E   E   E   
---------------------------------------------|
---------------------------------------------|
--7--7--7--7--7--7s--14--14--14--14--14--14--|
---------------------------------------------|
--5--5--5--5--5--5s--12--12--12--12--12--12--|
---------------------------------------------|


  |--3--|  |--3--|  |--3--|  |--3--|     |--3--|  |--3--|  |--3--|  |--3--|    
  E  E  E  E  E  E  E  E  E  E  E  E     E  E  E  E  E  E  E  E  E  E  E  E    
--------------------------------------|---------------------------------------|
--------------------------------------|---------------------------------------|
--9--9--9--9--9--9--9--9--9--9--9--9--|--9--9--9--9--9--9--9--9--9--9--9--9s--|
--------------------------------------|---------------------------------------|
--7--7--7--7--7--7--7--7--7--7--7--7--|--7--7--7--7--7--7--7--7--7--7--7--7s--|
--------------------------------------|---------------------------------------|


   |---3---|   |---3---|   |---3---|   |---3---|   
   E   E   E   E   E   E   E   E   E   E   E   E   
--------------------------------------------------|
--------------------------------------------------|
--11--11--11--11--11--11--11--11--11--11--11--11--|
--------------------------------------------------|
---9---9---9---9---9---9---9---9---9---9---9---9--|
--------------------------------------------------|


   |---3---|   |---3---|   |---3---|   |---3---|    
   E   E   E   E   E   E   E   E   E   E   E   E    
---------------------------------------------------|
---------------------------------------------------|
--11--11--11--11--11--11--11--11--11--11--11--11s--|
---------------------------------------------------|
---9---9---9---9---9---9---9---9---9---9---9---9s--|
---------------------------------------------------|


   |---3---|   |---3---|   |---3---|   |---3---|   
   E   E   E   E   E   E   E   E   E   E   E   E   
--------------------------------------------------|
--------------------------------------------------|
--12--12--12--12--12--12--12--12--12--12--12--12--|
--------------------------------------------------|
--10--10--10--10--10--10--10--10--10--10--10--10--|
--------------------------------------------------|


   |---3---|   |---3---|   |---3---|   |---3---|    
   E   E   E   E   E   E   E   E   E   E   E   E    
---------------------------------------------------|
---------------------------------------------------|
--12--12--12--12--12--12--12--12--12--12--12--12s--|
---------------------------------------------------|
--10--10--10--10--10--10--10--10--10--10--10--10s--|
---------------------------------------------------|


   |---3---|   |---3---|   |---3---|   |---3---|   
   E   E   E   E   E   E   E   E   E   E   E   E   
--------------------------------------------------|
--------------------------------------------------|
--16--16--16--16--16--16--16--16--16--16--16--16--|
--------------------------------------------------|
--14--14--14--14--14--14--14--14--14--14--14--14--|
--------------------------------------------------|


   |---3---|   |---3---|   |---3---|   |---3---|    
   E   E   E   E   E   E   E   E   E   E   E   E    
---------------------------------------------------|
---------------------------------------------------|
--16--16--16--16--16--16--16--16--16--16--16--16s--|
---------------------------------------------------|
--14--14--14--14--14--14--14--14--14--14--14--14s--|
---------------------------------------------------|


   |---3---|   |---3---|   |---3---|   |---3---|   
   E   E   E   E   E   E   E   E   E   E   E   E   
--------------------------------------------------|
--------------------------------------------------|
--12--12--12--12--12--12--12--12--12--12--12--12--|
--------------------------------------------------|
--10--10--10--10--10--10--10--10--10--10--10--10--|
--------------------------------------------------|


   |---3---|   |---3---|   |---3---|   |---3---|    
   E   E   E   E   E   E   E   E   E   E   E   E    
---------------------------------------------------|
---------------------------------------------------|
--12--12--12--12--12--12--12--12--12--12--12--12s--|
---------------------------------------------------|
--10--10--10--10--10--10--10--10--10--10--10--10s--|
---------------------------------------------------|


   |---3---|   |---3---|   |---3---|   |---3---|   
   E   E   E   E   E   E   E   E   E   E   E   E   
--------------------------------------------------|
--------------------------------------------------|
--14--14--14--14--14--14--14--14--14--14--14--14--|
--------------------------------------------------|
--12--12--12--12--12--12--12--12--12--12--12--12--|
--------------------------------------------------|


   |---3---|   |---3---|   |---3---|   |---3---|    
   E   E   E   E   E   E   E   E   E   E   E   E    
---------------------------------------------------|
---------------------------------------------------|
--14--14--14--14--14--14--14--14--14--14--14--14s--|
---------------------------------------------------|
--12--12--12--12--12--12--12--12--12--12--12--12s--|
---------------------------------------------------|


   |---3---|   |---3---|   |---3---|   |---3---|   
   E   E   E   E   E   E   E   E   E   E   E   E   
--------------------------------------------------|
--------------------------------------------------|
--16--16--16--16--16--16--16--16--16--16--16--16--|
--------------------------------------------------|
--14--14--14--14--14--14--14--14--14--14--14--14--|
--------------------------------------------------|


   |---3---|   |---3---|   |---3---|   |---3---|   
   E   E   E   E   E   E   E   E   E   E   E   E   
--------------------------------------------------|
--------------------------------------------------|
--16--16--16--16--16--16--16--16--16--16--16--16--|
--------------------------------------------------|
--14--14--14--14--14--14--14--14--14--14--14--14--|
--------------------------------------------------|


   |---3---|   |---3---|   |---3---|   |---3---|   
   E   E   E   E   E   E   E   E   E   E   E   E   
--------------------------------------------------|
--------------------------------------------------|
--16--16--16--16--16--16--16--16--16--16--16--16--|
--------------------------------------------------|
--14--14--14--14--14--14--14--14--14--14--14--14--|
--------------------------------------------------|


   |---3---|   |---3---|   |---3---|   |---3---|   
   E   E   E   E   E   E   E   E   E   E   E   E   
--------------------------------------------------|
--------------------------------------------------|
--16--16--16--16--16--16--16--16--16--16--16--16--|
--------------------------------------------------|
--14--14--14--14--14--14--14--14--14--14--14--14--|
--------------------------------------------------|


   |---3---|   |----3---|   |---3---|   |----3---|   
   E   E   E   E    E   E   E   E   E   E    E   E   
----------------------------------------------------|
----------------------------------------------------|
--12p--9-------------------12p--9-------------------|
----------10p--9h--10p--9----------10p--9h--10p--9--|
----------------------------------------------------|
----------------------------------------------------|


   |---3---|   |----3---|   |---3---|   |----3---|   
   E   E   E   E    E   E   E   E   E   E    E   E   
----------------------------------------------------|
----------------------------------------------------|
--12p--9-------------------12p--9-------------------|
----------10p--9h--10p--9----------10p--9h--10p--9--|
----------------------------------------------------|
----------------------------------------------------|


  |----3---|   |-3|    |----3---|   |-3|     
  E    E   E   E  Q    E    E   E   E  Q     
--------------------------------------------|
--------------------------------------------|
--------------12-------------------12-------|
--9h--10p--9------9----9h--10p--9------9----|
--------------------------------------------|
--------------------------------------------|


  |----3---|   |-3|    |----3---|   |-3|     
  E    E   E   E  Q    E    E   E   E  Q     
--------------------------------------------|
--------------------------------------------|
--------------12-------------------12-------|
--9h--10p--9------9----9h--10p--9------9----|
--------------------------------------------|
--------------------------------------------|


   |---3---|   |----3---|   |---3---|   |----3---|   
   E   E   E   E    E   E   E   E   E   E    E   E   
----------------------------------------------------|
----------------------------------------------------|
--12p--9-------------------12p--9-------------------|
----------10p--9h--10p--9----------10p--9h--10p--9--|
----------------------------------------------------|
----------------------------------------------------|


   |---3---|   |----3---|   |---3---|   |----3---|   
   E   E   E   E    E   E   E   E   E   E    E   E   
----------------------------------------------------|
----------------------------------------------------|
--12p--9-------------------12p--9-------------------|
----------10p--9h--10p--9----------10p--9h--10p--9--|
----------------------------------------------------|
----------------------------------------------------|


  |----3---|   |-3|    |----3---|   |-3|     
  E    E   E   E  Q    E    E   E   E  Q     
--------------------------------------------|
--------------------------------------------|
--------------12-------------------12-------|
--9h--10p--9------9----9h--10p--9------9----|
--------------------------------------------|
--------------------------------------------|


  |----3---|   |-3|    |----3---|   |-3|                  
  E    E   E   E  Q    E    E   E   E  Q                  
--------------------------------------------|-----------||
--------------10-------------------12-------|-----------||
--------------------------------------------|-----------||
--9h--10p--9------9----9h--10p--9------9----|-----------||
--------------------------------------------|-----------||
--------------------------------------------|-----------||



Duration Legend
---------------
W - whole
H - half
Q - quarter
E - 8th
S - 16th
T - 32nd
X - 64th
. - note dotted
|-n-|  - n-tuplets


Tablature Legend
----------------
L - tied note
x - dead note
g - grace note
(n) - ghost note
> - accentuded note
NH - natural harmonic
AH - artificial harmonic
TH - tapped harmonic
SH - semi harmonic
PH - pitch harmonic
h - hammer on
p - pull off
b - bend
br - bendRelease
pb - preBend
pbr - preBendRelease
brb - bendReleaseBend
\n/ - tremolo bar dip
\n - tremolo bar dive
-/n - tremolo bar Release up
/n\ - tremolo bar inverted dip
/n - tremolo bar return
-\n - tremolo bar Release down
S - shift slide
s - legato slide
/ -  slide into from below or out of upwards
\ -  slide into from above or out of downwards
~ - vibrato
W - wide vibrato
tr - trill
TP - tremolo picking
T - tapping
S - slap
P - pop
< - fade in
^ - brush up
v - brush down



Share "The Kill" by 30 Seconds To Mars


TOP 10 TABS

FRESH NEW TABS

ALL ARTISTS
artist wiki

mp3bear.com
song lyrics / contact us / privacy policy / tabspace toolbar
Copyright 2004 - 2014 TabSpace.com - All Rights Reserved.
song: the kill guitar tabs by 30 seconds to mars

0.052