:: Guitar & Bass Tabs Make Home Page
A B C D E F G H I J K L M N O P Q R S T U V W X Y Z #

  for    

On TABSPACE
Info About This Tab
Artist: Misc Television
Tab Type: Guitar
Rate This Tab!
Theme song on NBC's The Office
Tabbed by Gravo (tbsunlimited@hotmail.com)


Intro/basics on piano:
E :-3---3-------3----|-2---2-------2----|---3-----------3--|-8---8---8-7-5-7--|
B :---3-----------3--|---3-----------3--|-5---5-------5----|------------------|
G :-0----------------|-4----------------|------------------|-5-------5--------|
D :------------------|------------------|------------------|------------------|
A :------------------|------------------|------------------|------------------|
E :------------------|------------------|------------------|------------------|

or like this:
E :------------------|------------------|------------------|-8---8---8-7-5-7--|
B :-8---8-------8----|-7---7-------7----|---8-----------8--|------------------|
G :---7-----------7--|---7-----------7--|-9--9--------9----|------------------|
D :-5----------------|-9----------------|------------------|-10------10-------|
A :------------------|------------------|------------------|------------------|
E :------------------|------------------|------------------|------------------|


Lead on accordion-like instrument:
E :---------15~------|---------14151410-|-12---------------|-8---8---8-7-5-7--|
B :-----8------------|------------------|------------------|------------------|
G :------------------|------------------|------------------|------------------|
D :------------------|------------------|------------------|------------------|
A :------------------|------------------|------------------|------------------|
E :------------------|------------------|------------------|------------------|

E :---------15~------|---------14151714-|-12------1012107--|-8---8---8-7-5-7--|
B :-8---8------------|------------------|------------------|------------------|
G :------------------|------------------|------------------|------------------|
D :------------------|------------------|------------------|------------------|
A :------------------|------------------|------------------|------------------|
E :------------------|------------------|------------------|------------------|


Chords:
G - Bm/F# - Em - C


End with G and piano scale.



This was my first ever contributed tab. Be aware.


Share "The Office Theme" by Misc Television


TOP 10 TABS

FRESH NEW TABS

ALL ARTISTS
artist wiki

mp3bear.com
song lyrics / contact us / privacy policy / tabspace toolbar
Copyright 2004 - 2014 TabSpace.com - All Rights Reserved.
song: the office theme guitar tabs by misc television

0.007