:: Guitar & Bass Tabs Make Home Page
A B C D E F G H I J K L M N O P Q R S T U V W X Y Z #

  for    

On TABSPACE
Info About This Tab
Artist: 30 Seconds To Mars
Tab Type: Guitar
Difficulty: novice
Rate This Tab!
Story By 30 Seconds to Mars
Transcribed by Zach
tune down half step
			/Slide up
Intro/ Verse I	\Slide Down

eb ---------------------------------------|
Bb ---------------------------------------|
Gb ---------------------------------------|
Db -----5-------7-------------------------|
Ab 3-3---3/5-5---5----------7-----5---7--|
Eb ----------------------5-5---5-5---5----|

eb ----------------------------------------|
Bb ----------------------------------------|
Gb ----------------------------------------|
Db -----5-------7--------------------------|
Ab 3-3---3/5-5---5----------7---------7-5-|
Eb ----------------------5-5---5-5-5-5-----|

Chorus

eb ---------------------------------------------------|
Bb -13-13-13-13-12-10-10--------13------------------|
Gb ---------------------------------------------------|
Db ----------------------------------10-10-10-9-7-7--|
Ab----------------------------------------------------|
Eb ---------------------------------------------------|

eb -----------------------------------------------|
Bb 1012-13-------------12-13-13-----------------|
Gb -----------------------------------------------|
Db ------------9-10-12----------------------------|
Ab ----------------------------------------------|
Eb -----------------------------------------------|

eb ---------------------------------------------------|
Bb -13-13-13-13-12-10-10--------13------------------|
Gb ---------------------------------------------------|
Db ----------------------------------10-10-10-9-7-7--|
Ab----------------------------------------------------|
Eb ---------------------------------------------------|

eb -----------------------------------------------|
Bb 1012-13-------------12-13-13-----------------|
Gb -----------------------------------------------|
Db ------------9-10-12----------------------------|
Ab ----------------------------------------------|
Eb -----------------------------------------------|

eb -----------------------------------------------|
Bb 13-13-------66666666-5555555------------------|
Gb -----------------------------------------------|
Db -----------------------------------------------|
Ab ----------------------------------------------|
Eb -----------------------------------------------|

Verse II

eb 17------------------17---------------------------|
Bb ---17------------------17---------10/17----------|
Gb -------14\-----------------14\--------------------|
Db --------------------------------------------------|
Ab -------------------------------------------------|
Eb --------------------------------------------------|

Chorus

eb ---------------------------------------------------|
Bb -13-13-13-13-12-10-10--------13------------------|
Gb ---------------------------------------------------|
Db ----------------------------------10-10-10-9-7-7--|
Ab----------------------------------------------------|
Eb ---------------------------------------------------|

eb -----------------------------------------------|
Bb 1012-13-------------12-13-13-----------------|
Gb -----------------------------------------------|
Db ------------9-10-12----------------------------|
Ab ----------------------------------------------|
Eb -----------------------------------------------|

eb ---------------------------------------------------|
Bb -13-13-13-13-12-10-10--------13------------------|
Gb ---------------------------------------------------|
Db ----------------------------------10-10-10-9-7-7--|
Ab----------------------------------------------------|
Eb ---------------------------------------------------|

eb -----------------------------------------------|
Bb 1012-13-------------12-13-13-----------------|
Gb -----------------------------------------------|
Db ------------9-10-12----------------------------|
Ab ----------------------------------------------|
Eb -----------------------------------------------|

eb ----------------------|
Bb ---------------------|
Gb ----9-----------------|
Db ----9--(x15)-approx.--|
Ab ----7-----------------|
Eb ----------------------|

Bridge

eb ---------------------------------------------------------------|
Bb --------------------------------------------------------------|
Gb ---------------------------------------------------------------|
Db -------12------3------3------7------7------5------5--------12--|
Ab --12-------3------3------7------7------5------5-------12-----|
Eb 10--------1------1------5------5------3------3------10--------| x6

Outro

eb ----------------------------------------------------------------------|
Bb -13-13-13-13-12--10-10----13-13-------------------------------------|
Gb ----------------------------------------------------------------------|
Db ----------------------------------10-10--9-10-12-9-10-12-9-10-12----|
Ab ---------------------------------------------------------------------|
Eb ----------------------------------------------------------------------|

eb ---------------------------------------------------------------|
Bb --------------------------------------------------------------|
Gb ---------------------------------------------------------------|
Db 9-10-7-7-7-7----10-10-10-10-9-10-12----10-10-10-10-9-10-12--|
Ab --------------------------------------------------------------|
Eb ---------------------------------------------------------------|

eb -----------------------------------------------------|
Bb -------------------------------------10-10-10-------|
Gb -----------------------------------------------------|
Db -----------------------------------------------------|
Ab -10-12-14--12-14-12----10-12-7---------------------|
Eb -----------------------------------------------------|

eb ------------------------------------------|
Bb ------------------------------------------|
Gb ------------------------------------------|
Db -----5-------7----------------------------|
Ab 3-3---3/5-5---5----------7---------------|
Eb ----------------------5-5---5-5-----------|fade out

Intro
Verse
Chorus
Verse II
Chorus
Bridge
Outro

Lyrics:

I've been thinking of everything
I used to want to be
I've been thinking of everything
Of me, of you and me

This is the story of my life
These are the lies I have created

I'm in the middle of nothing
And it's where I want to be
I'm at the bottom of everything
And I finally start to leave

This is the story of my life
These are the lies I have created
I created

And I swear to god
I've found myself
In the end

In the end

This is the story of my life
These are the lies I have created


Share "The Story" by 30 Seconds To Mars


TOP 10 TABS

FRESH NEW TABS

ALL ARTISTS
artist wiki

mp3bear.com
song lyrics / contact us / privacy policy / tabspace toolbar
Copyright 2004 - 2014 TabSpace.com - All Rights Reserved.
song: the story guitar tabs by 30 seconds to mars

0.01