:: Guitar & Bass Tabs Make Home Page
A B C D E F G H I J K L M N O P Q R S T U V W X Y Z #

  for    

On TABSPACE
Info About This Tab
Artist: Panic At The Disco
Tab Type: Bass
Rate This Tab!
There's A Good Reason These Tables Are Numbered Honey. You Just Haven't Thought Of It 
- Panic! At The Disco

Tabbed By: Valerie Louie
e-mail: iloled@yahoo.com

Intro "Please leave all..."
G|----------------------------------------5~--4~----------|
D|------------------------------------------------7-5-4---|
A|-7---5-6-7--5----3-3-2-0--2-3-5--5-6-7----------------7-|
E|---------------3----------------------------------------|

Chorus
G|-----------------------------------------------------------------------------------------|
D|-----------2222-0000---------------------------2222-4444---------------------------------|
A|-3333-2222------------------22222222-3333-2222--------------------2-2-3-3-2-2-3-3-3-3-0--|
E|---------------------333333------------------------------3333333------------------------3|

Verse "next is a trip to the..."
G|---------------------------------------------------------------------|
D|---------------------------------------------------------------------|
A|-----------------0000000000000000---------00000000-----------22222222|
E|0000000000000000------------------3333333----------22222222----------|

Pre-Chorus "Talk to the mirror oh..."
G|------------------------------------------------------------------------------------|
D|------------------------------------------------------------------------------------|
A|---------55555555----------3~--3200000000-22222222-33333333-55555555-6-7-3-2-33-3-02|
E|00000000----------33333333----------------------------------------------------------|

Chorus
G|-------------------------------------------------------------------------------|
D|-----------2222-0000---------------------------2222-4444-----------------------|
A|-3333-2222------------------22222222-3333-2222-------------------222222222-2-2-|
E|---------------------333333------------------------------3333333---------------|

Bridge
G|------------------------------------|
D|-----------------------------2-2--2-|
A|---------------3-3--3-3--2-2--------|
E|-0-0--2-2--3-3----------------------| x2

G|-------------------------|---------------------------|
D|----------------------2--|---------------------------|
A|------------3-32-0-2-----|------------3~-32-0~-2-3-5-|
E|-0~--2~--3~--------------|-0~--2~--3~----------------|

Outro
G|-----------------------------------| |----------------------------------|
D|-----------------------------2-2--2| |----------------------------2-2-2-|
A|---------------3-3--0-0--2-2-------| |---------------3~--0-0--2-2-------|
E|-0-0--2-2--3-3---------------------| |-0-0--2-2--3-3--------------------|

last chorus
G|-------------------------|
D|----------------------2--|
A|------------3-32-0-2-----|
E|-0~--2~--3~--------------|


Share "Theres A Good Reason These Tables Are Numbered Honey You Just Havent Thought Of It Yet" by Panic At The Disco


TOP 10 TABS

FRESH NEW TABS

ALL ARTISTS
artist wiki

mp3bear.com
song lyrics / contact us / privacy policy / tabspace toolbar
Copyright 2004 - 2014 TabSpace.com - All Rights Reserved.
song: theres a good reason these tables are numbered honey you just havent thought of it yet bass tabs by panic at the disco

0.02